  0
SECTION
  2
HEADER
  9
$ACADVER
  1
AC1015
  9
$ACADMAINTVER
 70
     6
  9
$DWGCODEPAGE
  3
ANSI_1254
  9
$INSBASE
 10
0.0
 20
0.0
 30
0.0
  9
$EXTMIN
 10
0.0
 20
0.0
 30
0.0
  9
$EXTMAX
 10
279.4
 20
215.9
 30
0.0
  9
$LIMMIN
 10
0.0
 20
0.0
  9
$LIMMAX
 10
279.4
 20
215.9
  9
$ORTHOMODE
 70
     0
  9
$REGENMODE
 70
     1
  9
$FILLMODE
 70
     1
  9
$QTEXTMODE
 70
     0
  9
$MIRRTEXT
 70
     1
  9
$LTSCALE
 40
1.0
  9
$ATTMODE
 70
     1
  9
$TEXTSIZE
 40
3.5
  9
$TRACEWID
 40
1.0
  9
$TEXTSTYLE
  7
Standard
  9
$CLAYER
  8
0
  9
$CELTYPE
  6
ByLayer
  9
$CECOLOR
 62
   256
  9
$CELTSCALE
 40
1.0
  9
$DISPSILH
 70
     0
  9
$DIMSCALE
 40
1.0
  9
$DIMASZ
 40
3.5
  9
$DIMEXO
 40
1.0
  9
$DIMDLI
 40
3.75
  9
$DIMRND
 40
0.0
  9
$DIMDLE
 40
0.0
  9
$DIMEXE
 40
1.0
  9
$DIMTP
 40
0.0
  9
$DIMTM
 40
0.0
  9
$DIMTXT
 40
3.5
  9
$DIMCEN
 40
2.5
  9
$DIMTSZ
 40
0.0
  9
$DIMTOL
 70
     0
  9
$DIMLIM
 70
     0
  9
$DIMTIH
 70
     1
  9
$DIMTOH
 70
     1
  9
$DIMSE1
 70
     0
  9
$DIMSE2
 70
     0
  9
$DIMTAD
 70
     1
  9
$DIMZIN
 70
     0
  9
$DIMBLK
  1

  9
$DIMASO
 70
     1
  9
$DIMSHO
 70
     1
  9
$DIMPOST
  1

  9
$DIMAPOST
  1

  9
$DIMALT
 70
     0
  9
$DIMALTD
 70
     3
  9
$DIMALTF
 40
0.0393700787
  9
$DIMLFAC
 40
1.0
  9
$DIMTOFL
 70
     1
  9
$DIMTVP
 40
0.0
  9
$DIMTIX
 70
     0
  9
$DIMSOXD
 70
     0
  9
$DIMSAH
 70
     0
  9
$DIMBLK1
  1

  9
$DIMBLK2
  1

  9
$DIMSTYLE
  2
ISO-25
  9
$DIMCLRD
 70
     0
  9
$DIMCLRE
 70
     0
  9
$DIMCLRT
 70
     0
  9
$DIMTFAC
 40
1.0
  9
$DIMGAP
 40
1.524
  9
$DIMJUST
 70
     0
  9
$DIMSD1
 70
     0
  9
$DIMSD2
 70
     0
  9
$DIMTOLJ
 70
     0
  9
$DIMTZIN
 70
     0
  9
$DIMALTZ
 70
     0
  9
$DIMALTTZ
 70
     0
  9
$DIMUPT
 70
     0
  9
$DIMDEC
 70
     2
  9
$DIMTDEC
 70
     2
  9
$DIMALTU
 70
     2
  9
$DIMALTTD
 70
     3
  9
$DIMTXSTY
  7
Standard
  9
$DIMAUNIT
 70
     0
  9
$DIMADEC
 70
     2
  9
$DIMALTRND
 40
0.0
  9
$DIMAZIN
 70
     0
  9
$DIMDSEP
 70
    44
  9
$DIMATFIT
 70
     3
  9
$DIMFRAC
 70
     0
  9
$DIMLDRBLK
  1

  9
$DIMLUNIT
 70
     2
  9
$DIMLWD
 70
    -2
  9
$DIMLWE
 70
    -2
  9
$DIMTMOVE
 70
     0
  9
$LUNITS
 70
     2
  9
$LUPREC
 70
     2
  9
$SKETCHINC
 40
1.0
  9
$FILLETRAD
 40
10.0
  9
$AUNITS
 70
     0
  9
$AUPREC
 70
     2
  9
$MENU
  1
.
  9
$ELEVATION
 40
0.0
  9
$PELEVATION
 40
0.0
  9
$THICKNESS
 40
0.0
  9
$LIMCHECK
 70
     0
  9
$CHAMFERA
 40
0.0
  9
$CHAMFERB
 40
0.0
  9
$CHAMFERC
 40
0.0
  9
$CHAMFERD
 40
0.0
  9
$SKPOLY
 70
     0
  9
$TDCREATE
 40
2459954.364319676
  9
$TDUCREATE
 40
2459954.239319676
  9
$TDUPDATE
 40
2459954.36432022
  9
$TDUUPDATE
 40
2459954.23932022
  9
$TDINDWG
 40
0.0000000116
  9
$TDUSRTIMER
 40
0.0000000116
  9
$USRTIMER
 70
     1
  9
$ANGBASE
 50
0.0
  9
$ANGDIR
 70
     0
  9
$PDMODE
 70
     0
  9
$PDSIZE
 40
-1.0
  9
$PLINEWID
 40
0.0
  9
$SPLFRAME
 70
     0
  9
$SPLINETYPE
 70
     6
  9
$SPLINESEGS
 70
     8
  9
$HANDSEED
  5
10E
  9
$SURFTAB1
 70
     6
  9
$SURFTAB2
 70
     6
  9
$SURFTYPE
 70
     6
  9
$SURFU
 70
     6
  9
$SURFV
 70
     6
  9
$UCSBASE
  2

  9
$UCSNAME
  2

  9
$UCSORG
 10
0.0
 20
0.0
 30
0.0
  9
$UCSXDIR
 10
1.0
 20
0.0
 30
0.0
  9
$UCSYDIR
 10
0.0
 20
1.0
 30
0.0
  9
$UCSORTHOREF
  2

  9
$UCSORTHOVIEW
 70
     0
  9
$UCSORGTOP
 10
0.0
 20
0.0
 30
0.0
  9
$UCSORGBOTTOM
 10
0.0
 20
0.0
 30
0.0
  9
$UCSORGLEFT
 10
0.0
 20
0.0
 30
0.0
  9
$UCSORGRIGHT
 10
0.0
 20
0.0
 30
0.0
  9
$UCSORGFRONT
 10
0.0
 20
0.0
 30
0.0
  9
$UCSORGBACK
 10
0.0
 20
0.0
 30
0.0
  9
$PUCSBASE
  2

  9
$PUCSNAME
  2

  9
$PUCSORG
 10
0.0
 20
0.0
 30
0.0
  9
$PUCSXDIR
 10
1.0
 20
0.0
 30
0.0
  9
$PUCSYDIR
 10
0.0
 20
1.0
 30
0.0
  9
$PUCSORTHOREF
  2

  9
$PUCSORTHOVIEW
 70
     0
  9
$PUCSORGTOP
 10
0.0
 20
0.0
 30
0.0
  9
$PUCSORGBOTTOM
 10
0.0
 20
0.0
 30
0.0
  9
$PUCSORGLEFT
 10
0.0
 20
0.0
 30
0.0
  9
$PUCSORGRIGHT
 10
0.0
 20
0.0
 30
0.0
  9
$PUCSORGFRONT
 10
0.0
 20
0.0
 30
0.0
  9
$PUCSORGBACK
 10
0.0
 20
0.0
 30
0.0
  9
$USERI1
 70
     0
  9
$USERI2
 70
     0
  9
$USERI3
 70
     0
  9
$USERI4
 70
     0
  9
$USERI5
 70
     0
  9
$USERR1
 40
0.0
  9
$USERR2
 40
0.0
  9
$USERR3
 40
0.0
  9
$USERR4
 40
0.0
  9
$USERR5
 40
0.0
  9
$WORLDVIEW
 70
     1
  9
$SHADEDGE
 70
     3
  9
$SHADEDIF
 70
    70
  9
$TILEMODE
 70
     1
  9
$MAXACTVP
 70
    64
  9
$PINSBASE
 10
0.0
 20
0.0
 30
0.0
  9
$PLIMCHECK
 70
     0
  9
$PEXTMIN
 10
1.0000000000E+20
 20
1.0000000000E+20
 30
1.0000000000E+20
  9
$PEXTMAX
 10
-1.0000000000E+20
 20
-1.0000000000E+20
 30
-1.0000000000E+20
  9
$PLIMMIN
 10
0.0
 20
0.0
  9
$PLIMMAX
 10
420.0
 20
297.0
  9
$UNITMODE
 70
     0
  9
$VISRETAIN
 70
     1
  9
$PLINEGEN
 70
     0
  9
$PSLTSCALE
 70
     1
  9
$TREEDEPTH
 70
  3020
  9
$CMLSTYLE
  2
Standard
  9
$CMLJUST
 70
     0
  9
$CMLSCALE
 40
20.0
  9
$PROXYGRAPHICS
 70
     1
  9
$MEASUREMENT
 70
     1
  9
$CELWEIGHT
370
    -1
  9
$ENDCAPS
280
     0
  9
$JOINSTYLE
280
     0
  9
$LWDISPLAY
290
     1
  9
$INSUNITS
 70
     4
  9
$HYPERLINKBASE
  1

  9
$STYLESHEET
  1

  9
$XEDIT
290
     1
  9
$CEPSNTYPE
380
     0
  9
$PSTYLEMODE
290
     1
  9
$FINGERPRINTGUID
  2
{cd91b3ae-d50b-4c36-b477-a6a75d242fda}
  9
$VERSIONGUID
  2
{FAEB1C32-E019-11D5-929B-00C0DF256EC4}
  9
$EXTNAMES
290
     1
  9
$PSVPSCALE
 40
0.0
  9
$OLESTARTUP
290
     0
  0
ENDSEC
  0
SECTION
  2
CLASSES
  0
CLASS
  1
ACDBDICTIONARYWDFLT
  2
AcDbDictionaryWithDefault
  3
ObjectDBX Classes
 90
        0
280
     0
281
     0
  0
CLASS
  1
VISUALSTYLE
  2
AcDbVisualStyle
  3
ObjectDBX Classes
 90
     4095
280
     0
281
     0
  0
CLASS
  1
MATERIAL
  2
AcDbMaterial
  3
ObjectDBX Classes
 90
     1153
280
     0
281
     0
  0
CLASS
  1
SCALE
  2
AcDbScale
  3
ObjectDBX Classes
 90
     1153
280
     0
281
     0
  0
CLASS
  1
TABLESTYLE
  2
AcDbTableStyle
  3
ObjectDBX Classes
 90
     4095
280
     0
281
     0
  0
CLASS
  1
MLEADERSTYLE
  2
AcDbMLeaderStyle
  3
ACDB_MLEADERSTYLE_CLASS
 90
     4095
280
     0
281
     0
  0
CLASS
  1
SUN
  2
AcDbSun
  3
SCENEOE
 90
     1153
280
     0
281
     0
  0
CLASS
  1
ACDBPLACEHOLDER
  2
AcDbPlaceHolder
  3
ObjectDBX Classes
 90
        0
280
     0
281
     0
  0
CLASS
  1
LAYOUT
  2
AcDbLayout
  3
ObjectDBX Classes
 90
        0
280
     0
281
     0
  0
ENDSEC
  0
SECTION
  2
TABLES
  0
TABLE
  2
VPORT
  5
8
330
0
100
AcDbSymbolTable
 70
     1
  0
VPORT
  5
29
330
8
100
AcDbSymbolTableRecord
100
AcDbViewportTableRecord
  2
*Active
 70
     0
 10
0.0
 20
0.0
 11
1.0
 21
1.0
 12
139.7
 22
107.95
 13
0.0
 23
0.0
 14
10.0
 24
10.0
 15
10.0
 25
10.0
 16
0.0
 26
0.0
 36
1.0
 17
0.0
 27
0.0
 37
0.0
 40
215.9
 41
1.2941176471
 42
50.0
 43
0.0
 44
0.0
 50
0.0
 51
0.0
 71
     0
 72
  2000
 73
     1
 74
     3
 75
     0
 76
     0
 77
     0
 78
     0
281
     0
 65
     1
110
0.0
120
0.0
130
0.0
111
1.0
121
0.0
131
0.0
112
0.0
122
1.0
132
0.0
 79
     0
146
0.0
  0
ENDTAB
  0
TABLE
  2
LTYPE
  5
5
330
0
100
AcDbSymbolTable
 70
     6
  0
LTYPE
  5
14
330
5
100
AcDbSymbolTableRecord
100
AcDbLinetypeTableRecord
  2
ByBlock
 70
     0
  3

 72
    65
 73
     0
 40
0.0
  0
LTYPE
  5
15
330
5
100
AcDbSymbolTableRecord
100
AcDbLinetypeTableRecord
  2
ByLayer
 70
     0
  3

 72
    65
 73
     0
 40
0.0
  0
LTYPE
  5
16
330
5
100
AcDbSymbolTableRecord
100
AcDbLinetypeTableRecord
  2
Continuous
 70
     0
  3
Solid line
 72
    65
 73
     0
 40
0.0
  0
LTYPE
  5
6E
330
5
100
AcDbSymbolTableRecord
100
AcDbLinetypeTableRecord
  2
HIDDEN
 70
     0
  3
Hidden __ __ __ __ __ __ __ __ __ __ __ __ __ __
 72
    65
 73
     2
 40
1.905
 49
1.27
 74
     0
 49
-0.635
 74
     0
  0
LTYPE
  5
6F
330
5
100
AcDbSymbolTableRecord
100
AcDbLinetypeTableRecord
  2
PHANTOM
 70
     0
  3
Phantom ______  __  __  ______  __  __  ______
 72
    65
 73
     6
 40
12.7
 49
6.35
 74
     0
 49
-1.27
 74
     0
 49
1.27
 74
     0
 49
-1.27
 74
     0
 49
1.27
 74
     0
 49
-1.27
 74
     0
  0
LTYPE
  5
70
330
5
100
AcDbSymbolTableRecord
100
AcDbLinetypeTableRecord
  2
CENTER
 70
     0
  3
Center ____ _ ____ _ ____ _ ____ _ ____ _ ____
 72
    65
 73
     4
 40
10.16
 49
6.35
 74
     0
 49
-1.27
 74
     0
 49
1.27
 74
     0
 49
-1.27
 74
     0
  0
LTYPE
  5
71
330
5
100
AcDbSymbolTableRecord
100
AcDbLinetypeTableRecord
  2
CENTERX2
 70
     0
  3
Center (2x) ________  __  ________  __  _____
 72
    65
 73
     4
 40
20.32
 49
12.7
 74
     0
 49
-2.54
 74
     0
 49
2.54
 74
     0
 49
-2.54
 74
     0
  0
LTYPE
  5
72
330
5
100
AcDbSymbolTableRecord
100
AcDbLinetypeTableRecord
  2
DOT2
 70
     0
  3
Dot (.5x) ........................................
 72
    65
 73
     2
 40
0.635
 49
0.0
 74
     0
 49
-0.635
 74
     0
  0
ENDTAB
  0
TABLE
  2
LAYER
  5
2
330
0
100
AcDbSymbolTable
 70
    17
  0
LAYER
  5
10
330
2
100
AcDbSymbolTableRecord
100
AcDbLayerTableRecord
  2
0
 70
     0
 62
     7
  6
Continuous
370
    -3
390
F
  0
LAYER
  5
73
330
2
100
AcDbSymbolTableRecord
100
AcDbLayerTableRecord
  2
FORMAT
 70
     0
 62
     7
  6
Continuous
370
    -3
390
F
  0
LAYER
  5
74
330
2
100
AcDbSymbolTableRecord
100
AcDbLayerTableRecord
  2
YARDIMCI_GEOMETRI
 70
     0
 62
    -6
  6
Continuous
290
     0
370
    -3
390
F
  0
LAYER
  5
75
330
2
100
AcDbSymbolTableRecord
100
AcDbLayerTableRecord
  2
SAYFA_CERCEVESI
 70
     0
 62
     7
  6
Continuous
370
    25
390
F
  0
LAYER
  5
76
330
2
100
AcDbSymbolTableRecord
100
AcDbLayerTableRecord
  2
ANTET
 70
     0
 62
     7
  6
Continuous
370
    -3
390
F
  0
LAYER
  5
77
330
2
100
AcDbSymbolTableRecord
100
AcDbLayerTableRecord
  2
OLCU
 70
     0
 62
   150
  6
Continuous
370
    -3
390
F
  0
LAYER
  5
78
330
2
100
AcDbSymbolTableRecord
100
AcDbLayerTableRecord
  2
METIN
 70
     0
 62
    96
  6
Continuous
370
    -3
390
F
  0
LAYER
  5
79
330
2
100
AcDbSymbolTableRecord
100
AcDbLayerTableRecord
  2
BALON
 70
     0
 62
     5
  6
Continuous
370
    -3
390
F
  0
LAYER
  5
7A
330
2
100
AcDbSymbolTableRecord
100
AcDbLayerTableRecord
  2
VURGU
 70
     0
 62
     7
  6
Continuous
370
    -3
390
F
  0
LAYER
  5
7B
330
2
100
AcDbSymbolTableRecord
100
AcDbLayerTableRecord
  2
SILIK
 70
     0
 62
     7
  6
Continuous
370
    -3
390
F
  0
LAYER
  5
7C
330
2
100
AcDbSymbolTableRecord
100
AcDbLayerTableRecord
  2
MODEL
 70
     0
 62
     7
  6
Continuous
370
    -3
390
F
  0
LAYER
  5
7D
330
2
100
AcDbSymbolTableRecord
100
AcDbLayerTableRecord
  2
DETAYLANDıRMA
 70
     0
 62
   190
  6
Continuous
370
    -3
390
F
  0
LAYER
  5
7E
330
2
100
AcDbSymbolTableRecord
100
AcDbLayerTableRecord
  2
TOLERANS
 70
     0
 62
   230
  6
Continuous
370
    -3
390
F
  0
LAYER
  5
7F
330
2
100
AcDbSymbolTableRecord
100
AcDbLayerTableRecord
  2
MERKEZ_CIZGILERI
 70
     0
 62
    30
  6
Continuous
370
    -3
390
F
  0
LAYER
  5
80
330
2
100
AcDbSymbolTableRecord
100
AcDbLayerTableRecord
  2
KESIT-DETAY_CIZGILERI
 70
     0
 62
     7
  6
Continuous
370
    -3
390
F
  0
LAYER
  5
81
330
2
100
AcDbSymbolTableRecord
100
AcDbLayerTableRecord
  2
\U+041E\U+0421\U+0415\U+0412\U+042B\U+0415
 70
     0
 62
     7
  6
Continuous
370
    -3
390
F
  0
LAYER
  5
82
330
2
100
AcDbSymbolTableRecord
100
AcDbLayerTableRecord
  2
\U+0412\U+041E\U+0414\U+042F\U+041D\U+042B\U+0415_\U+0417\U+041D\U+0410\U+041A\U+0418
 70
     0
 62
    11
  6
Continuous
370
    -3
390
F
  0
ENDTAB
  0
TABLE
  2
STYLE
  5
3
330
0
100
AcDbSymbolTable
 70
     1
  0
STYLE
  5
11
330
3
100
AcDbSymbolTableRecord
100
AcDbTextStyleTableRecord
  2
Standard
 70
     0
 40
0.0
 41
1.0
 50
0.0
 71
     0
 42
3.5
  3
txt
  4

  0
ENDTAB
  0
TABLE
  2
VIEW
  5
6
330
0
100
AcDbSymbolTable
 70
     0
  0
ENDTAB
  0
TABLE
  2
UCS
  5
7
330
0
100
AcDbSymbolTable
 70
     0
  0
ENDTAB
  0
TABLE
  2
APPID
  5
9
330
0
100
AcDbSymbolTable
 70
     1
  0
APPID
  5
12
330
9
100
AcDbSymbolTableRecord
100
AcDbRegAppTableRecord
  2
ACAD
 70
     0
  0
ENDTAB
  0
TABLE
  2
DIMSTYLE
  5
A
330
0
100
AcDbSymbolTable
 70
     1
100
AcDbDimStyleTable
  0
DIMSTYLE
105
27
330
A
100
AcDbSymbolTableRecord
100
AcDbDimStyleTableRecord
  2
ISO-25
 70
     0
 41
2.5
 42
0.625
 43
3.75
 44
1.25
 73
     0
 74
     0
 77
     1
 78
     8
140
2.5
141
2.5
143
0.0393700787
147
0.625
171
     3
172
     1
178
     0
271
     2
272
     2
274
     3
278
    44
283
     0
284
     8
340
11
  0
ENDTAB
  0
TABLE
  2
BLOCK_RECORD
  5
1
330
0
100
AcDbSymbolTable
 70
     4
  0
BLOCK_RECORD
  5
1F
330
1
100
AcDbSymbolTableRecord
100
AcDbBlockTableRecord
  2
*Model_Space
340
22
  0
BLOCK_RECORD
  5
1B
330
1
100
AcDbSymbolTableRecord
100
AcDbBlockTableRecord
  2
*Paper_Space
340
1E
  0
BLOCK_RECORD
  5
23
330
1
100
AcDbSymbolTableRecord
100
AcDbBlockTableRecord
  2
*Paper_Space0
340
26
  0
BLOCK_RECORD
  5
8C
330
1
100
AcDbSymbolTableRecord
100
AcDbBlockTableRecord
  2
SW_CENTERMARKSYMBOL_0
340
0
102
{BLKREFS
331
97
102
}
  0
BLOCK_RECORD
  5
DE
330
1
100
AcDbSymbolTableRecord
100
AcDbBlockTableRecord
  2
SW_CENTERMARKSYMBOL_1
340
0
102
{BLKREFS
331
E9
102
}
  0
BLOCK_RECORD
  5
EA
330
1
100
AcDbSymbolTableRecord
100
AcDbBlockTableRecord
  2
SW_CENTERMARKSYMBOL_2
340
0
102
{BLKREFS
331
F5
102
}
  0
ENDTAB
  0
ENDSEC
  0
SECTION
  2
BLOCKS
  0
BLOCK
  5
20
330
1F
100
AcDbEntity
  8
0
100
AcDbBlockBegin
  2
*Model_Space
 70
     0
 10
0.0
 20
0.0
 30
0.0
  3
*Model_Space
  1

  0
ENDBLK
  5
21
330
1F
100
AcDbEntity
  8
0
100
AcDbBlockEnd
  0
BLOCK
  5
1C
330
1B
100
AcDbEntity
 67
     1
  8
0
100
AcDbBlockBegin
  2
*Paper_Space
 70
     0
 10
0.0
 20
0.0
 30
0.0
  3
*Paper_Space
  1

  0
ENDBLK
  5
1D
330
1B
100
AcDbEntity
 67
     1
  8
0
100
AcDbBlockEnd
  0
BLOCK
  5
24
330
23
100
AcDbEntity
  8
0
100
AcDbBlockBegin
  2
*Paper_Space0
 70
     0
 10
0.0
 20
0.0
 30
0.0
  3
*Paper_Space0
  1

  0
ENDBLK
  5
25
330
23
100
AcDbEntity
  8
0
100
AcDbBlockEnd
  0
BLOCK
  5
8D
330
8C
100
AcDbEntity
  8
0
100
AcDbBlockBegin
  2
SW_CENTERMARKSYMBOL_0
 70
     0
 10
0.0
 20
0.0
 30
0.0
  3
SW_CENTERMARKSYMBOL_0
  1

  0
LINE
  5
8F
330
8C
100
AcDbEntity
  8
FORMAT
 62
     0
100
AcDbLine
 10
0.0
 20
0.0
 30
0.0
 11
0.0
 21
2.5
 31
0.0
  0
LINE
  5
90
330
8C
100
AcDbEntity
  8
FORMAT
 62
     0
100
AcDbLine
 10
0.0
 20
0.0
 30
0.0
 11
-2.5
 21
0.0
 31
0.0
  0
LINE
  5
91
330
8C
100
AcDbEntity
  8
FORMAT
 62
     0
100
AcDbLine
 10
0.0
 20
0.0
 30
0.0
 11
0.0
 21
-2.5
 31
0.0
  0
LINE
  5
92
330
8C
100
AcDbEntity
  8
FORMAT
 62
     0
100
AcDbLine
 10
0.0
 20
0.0
 30
0.0
 11
2.5
 21
0.0
 31
0.0
  0
LINE
  5
93
330
8C
100
AcDbEntity
  8
FORMAT
 62
     0
100
AcDbLine
 10
0.0
 20
5.0
 30
0.0
 11
0.0
 21
22.7
 31
0.0
  0
LINE
  5
94
330
8C
100
AcDbEntity
  8
FORMAT
 62
     0
100
AcDbLine
 10
-5.0
 20
0.0
 30
0.0
 11
-22.7
 21
0.0
 31
0.0
  0
LINE
  5
95
330
8C
100
AcDbEntity
  8
FORMAT
 62
     0
100
AcDbLine
 10
0.0
 20
-5.0
 30
0.0
 11
0.0
 21
-22.7
 31
0.0
  0
LINE
  5
96
330
8C
100
AcDbEntity
  8
FORMAT
 62
     0
100
AcDbLine
 10
5.0
 20
0.0
 30
0.0
 11
22.7
 21
0.0
 31
0.0
  0
ENDBLK
  5
8E
330
8C
100
AcDbEntity
  8
0
100
AcDbBlockEnd
  0
BLOCK
  5
DF
330
DE
100
AcDbEntity
  8
0
100
AcDbBlockBegin
  2
SW_CENTERMARKSYMBOL_1
 70
     0
 10
0.0
 20
0.0
 30
0.0
  3
SW_CENTERMARKSYMBOL_1
  1

  0
LINE
  5
E1
330
DE
100
AcDbEntity
  8
FORMAT
 62
     0
100
AcDbLine
 10
0.0
 20
0.0
 30
0.0
 11
0.0
 21
2.5
 31
0.0
  0
LINE
  5
E2
330
DE
100
AcDbEntity
  8
FORMAT
 62
     0
100
AcDbLine
 10
0.0
 20
0.0
 30
0.0
 11
-2.5
 21
0.0
 31
0.0
  0
LINE
  5
E3
330
DE
100
AcDbEntity
  8
FORMAT
 62
     0
100
AcDbLine
 10
0.0
 20
0.0
 30
0.0
 11
0.0
 21
-2.5
 31
0.0
  0
LINE
  5
E4
330
DE
100
AcDbEntity
  8
FORMAT
 62
     0
100
AcDbLine
 10
0.0
 20
0.0
 30
0.0
 11
2.5
 21
0.0
 31
0.0
  0
LINE
  5
E5
330
DE
100
AcDbEntity
  8
FORMAT
 62
     0
100
AcDbLine
 10
0.0
 20
5.0
 30
0.0
 11
0.0
 21
9.5
 31
0.0
  0
LINE
  5
E6
330
DE
100
AcDbEntity
  8
FORMAT
 62
     0
100
AcDbLine
 10
-5.0
 20
0.0
 30
0.0
 11
-9.5
 21
0.0
 31
0.0
  0
LINE
  5
E7
330
DE
100
AcDbEntity
  8
FORMAT
 62
     0
100
AcDbLine
 10
0.0
 20
-5.0
 30
0.0
 11
0.0
 21
-9.5
 31
0.0
  0
LINE
  5
E8
330
DE
100
AcDbEntity
  8
FORMAT
 62
     0
100
AcDbLine
 10
5.0
 20
0.0
 30
0.0
 11
9.5
 21
0.0
 31
0.0
  0
ENDBLK
  5
E0
330
DE
100
AcDbEntity
  8
0
100
AcDbBlockEnd
  0
BLOCK
  5
EB
330
EA
100
AcDbEntity
  8
0
100
AcDbBlockBegin
  2
SW_CENTERMARKSYMBOL_2
 70
     0
 10
0.0
 20
0.0
 30
0.0
  3
SW_CENTERMARKSYMBOL_2
  1

  0
LINE
  5
ED
330
EA
100
AcDbEntity
  8
FORMAT
 62
     0
100
AcDbLine
 10
0.0
 20
0.0
 30
0.0
 11
0.0
 21
2.5
 31
0.0
  0
LINE
  5
EE
330
EA
100
AcDbEntity
  8
FORMAT
 62
     0
100
AcDbLine
 10
0.0
 20
0.0
 30
0.0
 11
-2.5
 21
0.0
 31
0.0
  0
LINE
  5
EF
330
EA
100
AcDbEntity
  8
FORMAT
 62
     0
100
AcDbLine
 10
0.0
 20
0.0
 30
0.0
 11
0.0
 21
-2.5
 31
0.0
  0
LINE
  5
F0
330
EA
100
AcDbEntity
  8
FORMAT
 62
     0
100
AcDbLine
 10
0.0
 20
0.0
 30
0.0
 11
2.5
 21
0.0
 31
0.0
  0
LINE
  5
F1
330
EA
100
AcDbEntity
  8
FORMAT
 62
     0
100
AcDbLine
 10
0.0
 20
5.0
 30
0.0
 11
0.0
 21
9.5
 31
0.0
  0
LINE
  5
F2
330
EA
100
AcDbEntity
  8
FORMAT
 62
     0
100
AcDbLine
 10
-5.0
 20
0.0
 30
0.0
 11
-9.5
 21
0.0
 31
0.0
  0
LINE
  5
F3
330
EA
100
AcDbEntity
  8
FORMAT
 62
     0
100
AcDbLine
 10
0.0
 20
-5.0
 30
0.0
 11
0.0
 21
-9.5
 31
0.0
  0
LINE
  5
F4
330
EA
100
AcDbEntity
  8
FORMAT
 62
     0
100
AcDbLine
 10
5.0
 20
0.0
 30
0.0
 11
9.5
 21
0.0
 31
0.0
  0
ENDBLK
  5
EC
330
EA
100
AcDbEntity
  8
0
100
AcDbBlockEnd
  0
ENDSEC
  0
SECTION
  2
ENTITIES
  0
LINE
  5
83
330
1F
100
AcDbEntity
  8
0
  6
Continuous
 62
     7
370
    25
100
AcDbLine
 10
137.6070913462
 20
121.7680981284
 30
0.0
 11
137.6070913462
 21
138.8949519231
 31
0.0
  0
LINE
  5
84
330
1F
100
AcDbEntity
  8
0
  6
Continuous
 62
     7
370
    25
100
AcDbLine
 10
123.6070913462
 20
138.8949519231
 30
0.0
 11
123.6070913462
 21
121.7695585621
 31
0.0
  0
CIRCLE
  5
85
330
1F
100
AcDbEntity
  8
0
  6
Continuous
 62
     7
370
    25
100
AcDbCircle
 10
130.6070913462
 20
95.8949519231
 30
0.0
 40
26.19999999999999
  0
ARC
  5
86
330
1F
100
AcDbEntity
  8
0
  6
Continuous
 62
     7
370
    25
100
AcDbCircle
 10
130.6070913462
 20
95.8949519231
 30
0.0
 40
27.2
100
AcDbArc
 50
104.913052822
 51
180.0
  0
ARC
  5
87
330
1F
100
AcDbEntity
  8
0
  6
Continuous
 62
     7
370
    25
100
AcDbCircle
 10
130.6070913462
 20
95.8949519231
 30
0.0
 40
27.20000000000002
100
AcDbArc
 50
180.0
 51
75.086947178
  0
SPLINE
  5
88
330
1F
100
AcDbEntity
  8
0
  6
Continuous
 62
     7
370
    25
100
AcDbSpline
210
0.0
220
0.0
230
1.0
 70
     8
 71
     3
 72
    22
 73
    18
 74
     0
 42
0.00000001
 43
0.00000001
 40
0.0
 40
0.0
 40
0.0
 40
0.0
 40
0.0713249730020881
 40
0.1426465865865122
 40
0.2140185166662684
 40
0.2853833360132225
 40
0.3557458078869453
 40
0.4261096660990405
 40
0.4957358676476537
 40
0.5653689073147423
 40
0.6360361468107066
 40
0.7067041091688359
 40
0.7784704398849356
 40
0.8502275007890235
 40
0.9210542289895317
 40
0.9918766459098882
 40
1.0
 40
1.0
 40
1.0
 40
1.0
 10
135.608611755473
 20
122.0098667537555
 30
0.0
 10
135.3198774345666
 20
122.0492790190816
 30
0.0
 10
134.7424223921865
 20
122.1281016934098
 30
0.0
 10
133.722039049616
 20
122.2387054590272
 30
0.0
 10
132.6196357368221
 20
122.3238502911309
 30
0.0
 10
131.46150209343
 20
122.3753397245001
 30
0.0
 10
130.2841380758447
 20
122.383935599541
 30
0.0
 10
129.1253879593193
 20
122.3527122419329
 30
0.0
 10
128.0140354603382
 20
122.2829649928184
 30
0.0
 10
126.9721656157473
 20
122.1858096778993
 30
0.0
 10
126.0282335839538
 20
122.0707139729549
 30
0.0
 10
125.1998134200403
 20
121.9523474630394
 30
0.0
 10
124.5235332856643
 20
121.8478465140938
 30
0.0
 10
124.0107626151122
 20
121.7702475313285
 30
0.0
 10
123.7106839555828
 20
121.7414368082788
 30
0.0
 10
123.5828183715064
 20
121.741515114824
 30
0.0
 10
123.6137068906726
 20
121.7669421713884
 30
0.0
 10
123.6168852544443
 20
121.7695585621247
 30
0.0
  0
SPLINE
  5
89
330
1F
100
AcDbEntity
  8
0
  6
Continuous
 62
     7
370
    25
100
AcDbSpline
210
0.0
220
0.0
230
1.0
 70
     8
 71
     3
 72
    13
 73
     9
 74
     0
 42
0.00000001
 43
0.00000001
 40
0.0
 40
0.0
 40
0.0
 40
0.0
 40
0.0058827332613064
 40
0.2227987922104275
 40
0.4338748275864618
 40
0.6449745738998595
 40
0.8224827440377995
 40
1.0
 40
1.0
 40
1.0
 40
1.0
 10
137.6037245789862
 20
121.7680981283943
 30
0.0
 10
137.6045824460829
 20
121.7674557369178
 30
0.0
 10
137.6370727434552
 20
121.7431262222615
 30
0.0
 10
137.522791899585
 20
121.740339882468
 30
0.0
 10
137.246187233192
 20
121.7652351756406
 30
0.0
 10
136.7988844702496
 20
121.8308506731224
 30
0.0
 10
136.2526978092603
 20
121.9160638024717
 30
0.0
 10
135.8233107696986
 20
121.9785985698635
 30
0.0
 10
135.608611755473
 20
122.0098667537555
 30
0.0
  0
CIRCLE
  5
8A
330
1F
100
AcDbEntity
  8
0
  6
Continuous
 62
     7
370
    25
100
AcDbCircle
 10
130.6070913462
 20
95.8949519231
 30
0.0
 40
20.19999999999999
  0
LINE
  5
8B
330
1F
100
AcDbEntity
  8
0
  6
Continuous
 62
     7
370
    25
100
AcDbLine
 10
137.6070913462
 20
138.8949519231
 30
0.0
 11
123.6070913462
 21
138.8949519231
 31
0.0
  0
INSERT
  5
97
330
1F
100
AcDbEntity
  8
FORMAT
 62
     7
100
AcDbBlockReference
  2
SW_CENTERMARKSYMBOL_0
 10
130.6070913462
 20
95.8949519231
 30
0.0
  0
ARC
  5
98
330
1F
100
AcDbEntity
  8
0
  6
Continuous
 62
     7
370
    25
100
AcDbCircle
 10
226.4770112626
 20
-405.5300480769
 30
0.0
 40
528.6249999999976
100
AcDbArc
 50
92.9796104632
 51
93.5247820473
  0
ARC
  5
99
330
1F
100
AcDbEntity
  8
0
  6
Continuous
 62
     7
370
    25
100
AcDbCircle
 10
226.4770112626
 20
-405.5300480769
 30
0.0
 40
528.6249999999977
100
AcDbArc
 50
90.0
 51
91.4647741957
  0
ARC
  5
9A
330
1F
100
AcDbEntity
  8
0
  6
Continuous
 62
     7
370
    25
100
AcDbCircle
 10
226.4770112626
 20
597.3199519231
 30
0.0
 40
528.6249999999976
100
AcDbArc
 50
266.4752179527
 51
270.0
  0
LINE
  5
9B
330
1F
100
AcDbEntity
  8
0
  6
Continuous
 62
     7
370
    25
100
AcDbLine
 10
226.4770112626
 20
68.6949519231
 30
0.0
 11
251.4770112626
 21
68.6949519231
 31
0.0
  0
LINE
  5
9C
330
1F
100
AcDbEntity
  8
0
  6
Continuous
 62
     7
370
    25
100
AcDbLine
 10
251.4770112626
 20
123.0949519231
 30
0.0
 11
226.4770112626
 21
123.0949519231
 31
0.0
  0
ARC
  5
9D
330
1F
100
AcDbEntity
  8
0
  6
Continuous
 62
     7
370
    25
100
AcDbCircle
 10
251.4770112626
 20
-405.5300480769
 30
0.0
 40
528.6249999999976
100
AcDbArc
 50
88.5338775065
 51
90.0
  0
ARC
  5
9E
330
1F
100
AcDbEntity
  8
0
  6
Continuous
 62
     7
370
    25
100
AcDbCircle
 10
251.4770112626
 20
-405.5300480769
 30
0.0
 40
528.6249999999976
100
AcDbArc
 50
86.4752179527
 51
87.0200022697
  0
ARC
  5
9F
330
1F
100
AcDbEntity
  8
0
  6
Continuous
 62
     7
370
    25
100
AcDbCircle
 10
251.4770112626
 20
597.3199519231
 30
0.0
 40
528.6249999999976
100
AcDbArc
 50
270.0
 51
273.5247820473
  0
LINE
  5
A0
330
1F
100
AcDbEntity
  8
0
  6
Continuous
 62
     7
370
    25
100
AcDbLine
 10
212.9770112626
 20
122.9189358047
 30
0.0
 11
212.9770112626
 21
138.8949519231
 31
0.0
  0
LINE
  5
A1
330
1F
100
AcDbEntity
  8
0
  6
Continuous
 62
     7
370
    25
100
AcDbLine
 10
198.9770112626
 20
138.8949519231
 30
0.0
 11
198.9770112626
 21
122.3744991018
 31
0.0
  0
LINE
  5
A2
330
1F
100
AcDbEntity
  8
0
  6
Continuous
 62
     7
370
    25
100
AcDbLine
 10
278.9770112626
 20
122.3752774291
 30
0.0
 11
278.9770112626
 21
138.8949519231
 31
0.0
  0
LINE
  5
A3
330
1F
100
AcDbEntity
  8
0
  6
Continuous
 62
     7
370
    25
100
AcDbLine
 10
264.9770112626
 20
138.8949519231
 30
0.0
 11
264.9770112626
 21
122.9153873106
 31
0.0
  0
LINE
  5
A4
330
1F
100
AcDbEntity
  8
0
  6
Continuous
 62
     7
370
    25
100
AcDbLine
 10
193.9770112626
 20
95.8949519231
 30
0.0
 11
193.9770112626
 21
122.0949519231
 31
0.0
  0
LINE
  5
A5
330
1F
100
AcDbEntity
  8
0
  6
Continuous
 62
     7
370
    25
100
AcDbLine
 10
193.9770112626
 20
69.6949519231
 30
0.0
 11
193.9770112626
 21
95.8949519231
 31
0.0
  0
SPLINE
  5
A6
330
1F
100
AcDbEntity
  8
0
  6
Continuous
 62
     7
370
    25
100
AcDbSpline
210
0.0
220
0.0
230
1.0
 70
     8
 71
     3
 72
    27
 73
    23
 74
     0
 42
0.00000001
 43
0.00000001
 40
0.0
 40
0.0
 40
0.0
 40
0.0
 40
0.0085193013806449
 40
0.0617267106930131
 40
0.112510591991087
 40
0.1647103608730155
 40
0.2165964468558149
 40
0.2698937572668668
 40
0.3234567981322591
 40
0.3785648722811998
 40
0.4321541862091531
 40
0.487394519663393
 40
0.5393466489793276
 40
0.5928576688002899
 40
0.6440129242240179
 40
0.6966001938598435
 40
0.7487287628954898
 40
0.8023094252688218
 40
0.8554507013339908
 40
0.9101568461075806
 40
0.9628210495346234
 40
1.0
 40
1.0
 40
1.0
 40
1.0
 10
212.964228324518
 20
122.9189165948786
 30
0.0
 10
212.9682927203764
 20
122.920069394937
 30
0.0
 10
212.9977413542584
 20
122.9284220229889
 30
0.0
 10
212.8685438039978
 20
122.8916044071019
 30
0.0
 10
212.5699430548109
 20
122.8086083241811
 30
0.0
 10
212.0856734270474
 20
122.6800370219446
 30
0.0
 10
211.4372385299493
 20
122.5201971211997
 30
0.0
 10
210.6356109911693
 20
122.3421043873631
 30
0.0
 10
209.6878457606871
 20
122.1601596753767
 30
0.0
 10
208.6296861730801
 20
121.9945983983149
 30
0.0
 10
207.4800881360159
 20
121.8604707496296
 30
0.0
 10
206.3045637346542
 20
121.7735926167303
 30
0.0
 10
205.1186858430378
 20
121.7378066175957
 30
0.0
 10
203.9854239632591
 20
121.7523083269109
 30
0.0
 10
202.9039933466381
 20
121.810518608568
 30
0.0
 10
201.9156304132545
 20
121.9012013884655
 30
0.0
 10
201.0240318622804
 20
122.0135484213212
 30
0.0
 10
200.266196520977
 20
122.1315721564453
 30
0.0
 10
199.654823553537
 20
122.2416965976749
 30
0.0
 10
199.2332997479544
 20
122.3252730293439
 30
0.0
 10
199.0009165051092
 20
122.3740704673689
 30
0.0
 10
198.9996378129026
 20
122.3743689725306
 30
0.0
 10
198.9991086636893
 20
122.3744925001244
 30
0.0
  0
LINE
  5
A7
330
1F
100
AcDbEntity
  8
0
  6
Continuous
 62
     7
370
    25
100
AcDbLine
 10
283.9770112626
 20
95.8949519231
 30
0.0
 11
283.9770112626
 21
122.0949519231
 31
0.0
  0
LINE
  5
A8
330
1F
100
AcDbEntity
  8
0
  6
Continuous
 62
     7
370
    25
100
AcDbLine
 10
283.9770112626
 20
69.6949519231
 30
0.0
 11
283.9770112626
 21
95.8949519231
 31
0.0
  0
SPLINE
  5
A9
330
1F
100
AcDbEntity
  8
0
  6
Continuous
 62
     7
370
    25
100
AcDbSpline
210
0.0
220
0.0
230
1.0
 70
     8
 71
     3
 72
    27
 73
    23
 74
     0
 42
0.00000001
 43
0.00000001
 40
0.0
 40
0.0
 40
0.0
 40
0.0
 40
0.0138264673921472
 40
0.0675030804805041
 40
0.1191270907929453
 40
0.1722072031578003
 40
0.2246029701110492
 40
0.2784717629431065
 40
0.3316376531367203
 40
0.3863823772636756
 40
0.4388357820394396
 40
0.4928847238843808
 40
0.544130505888864
 40
0.5968472673540383
 40
0.6484582003268419
 40
0.7014771779739584
 40
0.7547132739735868
 40
0.8094551757050489
 40
0.8632549616366394
 40
0.9186987876186318
 40
0.9710228632605579
 40
1.0
 40
1.0
 40
1.0
 40
1.0
 10
278.9585763186076
 20
122.3752684528907
 30
0.0
 10
278.9640460753871
 20
122.3764253607351
 30
0.0
 10
278.9907503246811
 20
122.3820735744918
 30
0.0
 10
278.8445393463147
 20
122.3510073241634
 30
0.0
 10
278.517484002591
 20
122.2843089495118
 30
0.0
 10
278.0018522794285
 20
122.1865298601381
 30
0.0
 10
277.3176818776752
 20
122.0713933838607
 30
0.0
 10
276.4836807720915
 20
121.9535317121687
 30
0.0
 10
275.5088846542992
 20
121.8477431837661
 30
0.0
 10
274.4393940136521
 20
121.7718987531887
 30
0.0
 10
273.2924795117802
 20
121.7377043082628
 30
0.0
 10
272.1327676220114
 20
121.7529022857013
 30
0.0
 10
270.9695566818291
 20
121.8182779301001
 30
0.0
 10
269.8540993645262
 20
121.9274692909038
 30
0.0
 10
268.7873037888285
 20
122.0741122695872
 30
0.0
 10
267.8052275590663
 20
122.2448768225546
 30
0.0
 10
266.9199868196627
 20
122.4277222591344
 30
0.0
 10
266.1727302862409
 20
122.6030693091919
 30
0.0
 10
265.5784377800602
 20
122.7559387610259
 30
0.0
 10
265.1855214212274
 20
122.8634224301781
 30
0.0
 10
264.9864068630915
 20
122.9198607223377
 30
0.0
 10
264.9980473109722
 20
122.9165624717359
 30
0.0
 10
265.0021961648462
 20
122.9153869190487
 30
0.0
  0
LINE
  5
AA
330
1F
100
AcDbEntity
  8
0
  6
Continuous
 62
     7
370
    25
100
AcDbLine
 10
212.9770112626
 20
138.8949519231
 30
0.0
 11
198.9770112626
 21
138.8949519231
 31
0.0
  0
LINE
  5
AB
330
1F
100
AcDbEntity
  8
0
  6
Continuous
 62
     7
370
    25
100
AcDbLine
 10
278.9770112626
 20
138.8949519231
 30
0.0
 11
264.9770112626
 21
138.8949519231
 31
0.0
  0
LINE
  5
AC
330
1F
100
AcDbEntity
  8
0
  6
Continuous
 62
     1
370
    25
100
AcDbLine
 10
226.4770112626
 20
95.8949519231
 30
0.0
 11
226.4770112626
 21
123.0949519231
 31
0.0
  0
LINE
  5
AD
330
1F
100
AcDbEntity
  8
0
  6
Continuous
 62
     1
370
    25
100
AcDbLine
 10
226.4770112626
 20
68.6949519231
 30
0.0
 11
226.4770112626
 21
95.8949519231
 31
0.0
  0
LINE
  5
AE
330
1F
100
AcDbEntity
  8
0
  6
Continuous
 62
     1
370
    25
100
AcDbLine
 10
251.4770112626
 20
95.8949519231
 30
0.0
 11
251.4770112626
 21
123.0949519231
 31
0.0
  0
LINE
  5
AF
330
1F
100
AcDbEntity
  8
0
  6
Continuous
 62
     1
370
    25
100
AcDbLine
 10
251.4770112626
 20
68.6949519231
 30
0.0
 11
251.4770112626
 21
95.8949519231
 31
0.0
  0
ARC
  5
B0
330
1F
100
AcDbEntity
  8
0
  6
Continuous
 62
     7
370
    25
100
AcDbCircle
 10
632.0320913462
 20
203.4064557946
 30
0.0
 40
528.6249999999976
100
AcDbArc
 50
180.0
 51
183.5247820473
  0
ARC
  5
B1
330
1F
100
AcDbEntity
  8
0
  6
Continuous
 62
     7
370
    25
100
AcDbCircle
 10
-370.8179086538
 20
203.4064557946
 30
0.0
 40
528.6249999999976
100
AcDbArc
 50
356.4752179527
 51
0.0
  0
LINE
  5
B2
330
1F
100
AcDbEntity
  8
0
  6
Continuous
 62
     7
370
    25
100
AcDbLine
 10
157.8070913462
 20
203.4064557946
 30
0.0
 11
157.8070913462
 21
228.4064557946
 31
0.0
  0
LINE
  5
B3
330
1F
100
AcDbEntity
  8
0
  6
Continuous
 62
     7
370
    25
100
AcDbLine
 10
103.4070913462
 20
228.4064557946
 30
0.0
 11
103.4070913462
 21
203.4064557946
 31
0.0
  0
ARC
  5
B4
330
1F
100
AcDbEntity
  8
0
  6
Continuous
 62
     7
370
    25
100
AcDbCircle
 10
632.0320913462
 20
228.4064557946
 30
0.0
 40
528.6249999999976
100
AcDbArc
 50
176.4752179527
 51
180.0
  0
ARC
  5
B5
330
1F
100
AcDbEntity
  8
0
  6
Continuous
 62
     7
370
    25
100
AcDbCircle
 10
-370.8179086538
 20
228.4064557946
 30
0.0
 40
528.6249999999976
100
AcDbArc
 50
0.0
 51
3.5247820473
  0
LINE
  5
B6
330
1F
100
AcDbEntity
  8
0
  6
Continuous
 62
     7
370
    25
100
AcDbLine
 10
156.8070913462
 20
170.9064557946
 30
0.0
 11
104.4070913462
 21
170.9064557946
 31
0.0
  0
LINE
  5
B7
330
1F
100
AcDbEntity
  8
0
  6
Continuous
 62
     7
370
    25
100
AcDbLine
 10
156.8070913462
 20
260.9064557946
 30
0.0
 11
104.4070913462
 21
260.9064557946
 31
0.0
  0
LINE
  5
B8
330
1F
100
AcDbEntity
  8
0
  6
Continuous
 62
     1
370
    25
100
AcDbLine
 10
157.8070913462
 20
203.4064557946
 30
0.0
 11
103.4070913462
 21
203.4064557946
 31
0.0
  0
LINE
  5
B9
330
1F
100
AcDbEntity
  8
0
  6
Continuous
 62
     1
370
    25
100
AcDbLine
 10
157.8070913462
 20
228.4064557946
 30
0.0
 11
103.4070913462
 21
228.4064557946
 31
0.0
  0
ARC
  5
BA
330
1F
100
AcDbEntity
  8
0
  6
Continuous
 62
     7
370
    25
100
AcDbCircle
 10
21.8610893071
 20
597.3199519231
 30
0.0
 40
528.6249999999976
100
AcDbArc
 50
270.0
 51
273.5247820473
  0
ARC
  5
BB
330
1F
100
AcDbEntity
  8
0
  6
Continuous
 62
     7
370
    25
100
AcDbCircle
 10
21.8610893071
 20
-405.5300480769
 30
0.0
 40
528.6249999999976
100
AcDbArc
 50
88.5352321071
 51
90.0
  0
ARC
  5
BC
330
1F
100
AcDbEntity
  8
0
  6
Continuous
 62
     7
370
    25
100
AcDbCircle
 10
21.8610893071
 20
-405.5300480769
 30
0.0
 40
528.6249999999976
100
AcDbArc
 50
86.4752179527
 51
87.0203942319
  0
LINE
  5
BD
330
1F
100
AcDbEntity
  8
0
  6
Continuous
 62
     7
370
    25
100
AcDbLine
 10
21.8610893071
 20
123.0949519231
 30
0.0
 11
-3.1389106929
 21
123.0949519231
 31
0.0
  0
LINE
  5
BE
330
1F
100
AcDbEntity
  8
0
  6
Continuous
 62
     7
370
    25
100
AcDbLine
 10
-3.1389106929
 20
68.6949519231
 30
0.0
 11
21.8610893071
 21
68.6949519231
 31
0.0
  0
ARC
  5
BF
330
1F
100
AcDbEntity
  8
0
  6
Continuous
 62
     7
370
    25
100
AcDbCircle
 10
-3.1389106929
 20
597.3199519231
 30
0.0
 40
528.6249999999976
100
AcDbArc
 50
266.4752179527
 51
270.0
  0
ARC
  5
C0
330
1F
100
AcDbEntity
  8
0
  6
Continuous
 62
     7
370
    25
100
AcDbCircle
 10
-3.1389106929
 20
-405.5300480769
 30
0.0
 40
528.6249999999976
100
AcDbArc
 50
92.9800030494
 51
93.5247820473
  0
ARC
  5
C1
330
1F
100
AcDbEntity
  8
0
  6
Continuous
 62
     7
370
    25
100
AcDbCircle
 10
-3.1389106929
 20
-405.5300480769
 30
0.0
 40
528.6249999999976
100
AcDbArc
 50
90.0
 51
91.4661268071
  0
LINE
  5
C2
330
1F
100
AcDbEntity
  8
0
  6
Continuous
 62
     7
370
    25
100
AcDbLine
 10
49.3610893071
 20
122.3744991018
 30
0.0
 11
49.3610893071
 21
138.8949519231
 31
0.0
  0
LINE
  5
C3
330
1F
100
AcDbEntity
  8
0
  6
Continuous
 62
     7
370
    25
100
AcDbLine
 10
35.3610893071
 20
138.8949519231
 30
0.0
 11
35.3610893071
 21
122.9189358047
 31
0.0
  0
LINE
  5
C4
330
1F
100
AcDbEntity
  8
0
  6
Continuous
 62
     7
370
    25
100
AcDbLine
 10
-16.6389106929
 20
122.9153873106
 30
0.0
 11
-16.6389106929
 21
138.8949519231
 31
0.0
  0
LINE
  5
C5
330
1F
100
AcDbEntity
  8
0
  6
Continuous
 62
     7
370
    25
100
AcDbLine
 10
-30.6389106929
 20
138.8949519231
 30
0.0
 11
-30.6389106929
 21
122.3752774291
 31
0.0
  0
LINE
  5
C6
330
1F
100
AcDbEntity
  8
0
  6
Continuous
 62
     7
370
    25
100
AcDbLine
 10
54.3610893071
 20
122.0949519231
 30
0.0
 11
54.3610893071
 21
69.6949519231
 31
0.0
  0
SPLINE
  5
C7
330
1F
100
AcDbEntity
  8
0
  6
Continuous
 62
     7
370
    25
100
AcDbSpline
210
0.0
220
0.0
230
1.0
 70
     8
 71
     3
 72
    12
 73
     8
 74
     0
 42
0.00000001
 43
0.00000001
 40
0.0
 40
0.0
 40
0.0
 40
0.0
 40
0.2051922215256055
 40
0.4161985391177747
 40
0.6214336462840869
 40
0.832915874024968
 40
1.0
 40
1.0
 40
1.0
 40
1.0
 10
37.53544783331979
 20
122.3814862044565
 30
0.0
 10
37.26898613776655
 20
122.4403861449457
 30
0.0
 10
36.72851258767017
 20
122.5598549484095
 30
0.0
 10
36.11087326125677
 20
122.7171199543468
 30
0.0
 10
35.65856751160032
 20
122.8385109406431
 30
0.0
 10
35.39836584787247
 20
122.9119172610074
 30
0.0
 10
35.38137203266402
 20
122.9167734417919
 30
0.0
 10
35.37387163878797
 20
122.9189167667704
 30
0.0
  0
SPLINE
  5
C8
330
1F
100
AcDbEntity
  8
0
  6
Continuous
 62
     7
370
    25
100
AcDbSpline
210
0.0
220
0.0
230
1.0
 70
     8
 71
     3
 72
    22
 73
    18
 74
     0
 42
0.00000001
 43
0.00000001
 40
0.0
 40
0.0
 40
0.0
 40
0.0
 40
0.0230130540866098
 40
0.0927122391050847
 40
0.164422310410098
 40
0.2343950108330189
 40
0.3063199923423821
 40
0.3776618894491852
 40
0.4510607700202837
 40
0.5224893552800911
 40
0.5960885699390022
 40
0.665818302631433
 40
0.7376201198029936
 40
0.8066194840978277
 40
0.8775315969726285
 40
0.9381594963950018
 40
1.0
 40
1.0
 40
1.0
 40
1.0
 10
49.33899101609786
 20
122.3744923121565
 30
0.0
 10
49.34528562096385
 20
122.3758236837031
 30
0.0
 10
49.37064457198414
 20
122.3811873541095
 30
0.0
 10
49.21707494988374
 20
122.348604702586
 30
0.0
 10
48.88568054369806
 20
122.2811310323792
 30
0.0
 10
48.3585321614428
 20
122.1816307905516
 30
0.0
 10
47.67276773929547
 20
122.0668577398566
 30
0.0
 10
46.82654776812475
 20
121.9483568699763
 30
0.0
 10
45.8549254174628
 20
121.8443454424134
 30
0.0
 10
44.77133624468152
 20
121.7692560859745
 30
0.0
 10
43.6351909185327
 20
121.7373857403397
 30
0.0
 10
42.46180845412592
 20
121.7549071724403
 30
0.0
 10
41.31219097075805
 20
121.8214646928454
 30
0.0
 10
40.18816127939746
 20
121.9334511702491
 30
0.0
 10
39.18369590013576
 20
122.0732435359926
 30
0.0
 10
38.284190684427
 20
122.227616280203
 30
0.0
 10
37.78667082535603
 20
122.3298587829751
 30
0.0
 10
37.53544783331979
 20
122.3814862044565
 30
0.0
  0
LINE
  5
C9
330
1F
100
AcDbEntity
  8
0
  6
Continuous
 62
     7
370
    25
100
AcDbLine
 10
-35.6389106929
 20
122.0949519231
 30
0.0
 11
-35.6389106929
 21
69.6949519231
 31
0.0
  0
SPLINE
  5
CA
330
1F
100
AcDbEntity
  8
0
  6
Continuous
 62
     7
370
    25
100
AcDbSpline
210
0.0
220
0.0
230
1.0
 70
     8
 71
     3
 72
    12
 73
     8
 74
     0
 42
0.00000001
 43
0.00000001
 40
0.0
 40
0.0
 40
0.0
 40
0.0
 40
0.2090638296728809
 40
0.4241226855339667
 40
0.6332065370033868
 40
0.8485169562060686
 40
1.0
 40
1.0
 40
1.0
 40
1.0
 10
-28.53633793531462
 20
122.0098667537555
 30
0.0
 10
-28.79991035641736
 20
122.0487537360391
 30
0.0
 10
-29.33461329018497
 20
122.1276428073062
 30
0.0
 10
-29.93852395685382
 20
122.237824241145
 30
0.0
 10
-30.37283493625736
 20
122.3231278322856
 30
0.0
 10
-30.61148065651623
 20
122.373340352467
 30
0.0
 10
-30.61784758699127
 20
122.3747051027437
 30
0.0
 10
-30.6204770831663
 20
122.375268734724
 30
0.0
  0
SPLINE
  5
CB
330
1F
100
AcDbEntity
  8
0
  6
Continuous
 62
     7
370
    25
100
AcDbSpline
210
0.0
220
0.0
230
1.0
 70
     8
 71
     3
 72
    22
 73
    18
 74
     0
 42
0.00000001
 43
0.00000001
 40
0.0
 40
0.0
 40
0.0
 40
0.0
 40
0.0334037503125247
 40
0.1014850621356325
 40
0.1715140273455497
 40
0.2402004775222143
 40
0.310752677932516
 40
0.3817680464954117
 40
0.4547755859746268
 40
0.5268524339170364
 40
0.6011147563714773
 40
0.6714863783006855
 40
0.744013134132496
 40
0.8125600206855836
 40
0.8830671459765058
 40
0.9409790832951493
 40
1.0
 40
1.0
 40
1.0
 40
1.0
 10
-16.66409560187366
 20
122.9153869171354
 30
0.0
 10
-16.65856920194022
 20
122.9169553832118
 30
0.0
 10
-16.64177925963183
 20
122.9217205929783
 30
0.0
 10
-16.81734252971158
 20
122.8718884070351
 30
0.0
 10
-17.16826585251579
 20
122.775402743671
 30
0.0
 10
-17.70411092598157
 20
122.6358248267317
 30
0.0
 10
-18.39551566664919
 20
122.4698548095376
 30
0.0
 10
-19.24449528018991
 20
122.2882384851916
 30
0.0
 10
-20.22358994241809
 20
122.1099300755212
 30
0.0
 10
-21.31841742177133
 20
121.9508506717856
 30
0.0
 10
-22.47198527046305
 20
121.8304578051391
 30
0.0
 10
-23.66463706942421
 20
121.7574665112197
 30
0.0
 10
-24.82772205590527
 20
121.7370948841329
 30
0.0
 10
-25.95810444869037
 20
121.7653943211492
 30
0.0
 10
-26.94860220174457
 20
121.8301536319112
 30
0.0
 10
-27.82139816540647
 20
121.9157240808131
 30
0.0
 10
-28.29652266773572
 20
121.9782880792258
 30
0.0
 10
-28.53633793531462
 20
122.0098667537555
 30
0.0
  0
LINE
  5
CC
330
1F
100
AcDbEntity
  8
0
  6
Continuous
 62
     7
370
    25
100
AcDbLine
 10
49.3610893071
 20
138.8949519231
 30
0.0
 11
35.3610893071
 21
138.8949519231
 31
0.0
  0
LINE
  5
CD
330
1F
100
AcDbEntity
  8
0
  6
Continuous
 62
     7
370
    25
100
AcDbLine
 10
-16.6389106929
 20
138.8949519231
 30
0.0
 11
-30.6389106929
 21
138.8949519231
 31
0.0
  0
LINE
  5
CE
330
1F
100
AcDbEntity
  8
0
  6
Continuous
 62
     1
370
    25
100
AcDbLine
 10
21.8610893071
 20
123.0949519231
 30
0.0
 11
21.8610893071
 21
68.6949519231
 31
0.0
  0
LINE
  5
CF
330
1F
100
AcDbEntity
  8
0
  6
Continuous
 62
     1
370
    25
100
AcDbLine
 10
-3.1389106929
 20
123.0949519231
 30
0.0
 11
-3.1389106929
 21
68.6949519231
 31
0.0
  0
ARC
  5
D0
330
1F
100
AcDbEntity
  8
0
  6
Continuous
 62
     7
370
    25
100
AcDbCircle
 10
-370.8179086538
 20
4.9537365732
 30
0.0
 40
528.6249999999976
100
AcDbArc
 50
0.0
 51
3.5247820473
  0
ARC
  5
D1
330
1F
100
AcDbEntity
  8
0
  6
Continuous
 62
     7
370
    25
100
AcDbCircle
 10
632.0320913462
 20
4.9537365732
 30
0.0
 40
528.6249999999976
100
AcDbArc
 50
176.4752179527
 51
180.0
  0
LINE
  5
D2
330
1F
100
AcDbEntity
  8
0
  6
Continuous
 62
     7
370
    25
100
AcDbLine
 10
103.4070913462
 20
4.9537365732
 30
0.0
 11
103.4070913462
 21
-20.0462634268
 31
0.0
  0
LINE
  5
D3
330
1F
100
AcDbEntity
  8
0
  6
Continuous
 62
     7
370
    25
100
AcDbLine
 10
157.8070913462
 20
-20.0462634268
 30
0.0
 11
157.8070913462
 21
4.9537365732
 31
0.0
  0
ARC
  5
D4
330
1F
100
AcDbEntity
  8
0
  6
Continuous
 62
     7
370
    25
100
AcDbCircle
 10
-370.8179086538
 20
-20.0462634268
 30
0.0
 40
528.6249999999976
100
AcDbArc
 50
356.4752179527
 51
0.0
  0
ARC
  5
D5
330
1F
100
AcDbEntity
  8
0
  6
Continuous
 62
     7
370
    25
100
AcDbCircle
 10
632.0320913462
 20
-20.0462634268
 30
0.0
 40
528.6249999999976
100
AcDbArc
 50
180.0
 51
183.5247820473
  0
CIRCLE
  5
D6
330
1F
100
AcDbEntity
  8
0
  6
Continuous
 62
     7
370
    25
100
AcDbCircle
 10
130.6070913462
 20
25.4537365732
 30
0.0
 40
5.000000000000004
  0
CIRCLE
  5
D7
330
1F
100
AcDbEntity
  8
0
  6
Continuous
 62
     7
370
    25
100
AcDbCircle
 10
130.6070913462
 20
25.4537365732
 30
0.0
 40
7.000000000000011
  0
CIRCLE
  5
D8
330
1F
100
AcDbEntity
  8
0
  6
Continuous
 62
     7
370
    25
100
AcDbCircle
 10
130.6070913462
 20
-40.5462634268
 30
0.0
 40
7.000000000000014
  0
CIRCLE
  5
D9
330
1F
100
AcDbEntity
  8
0
  6
Continuous
 62
     7
370
    25
100
AcDbCircle
 10
130.6070913462
 20
-40.5462634268
 30
0.0
 40
5.000000000000007
  0
LINE
  5
DA
330
1F
100
AcDbEntity
  8
0
  6
Continuous
 62
     7
370
    25
100
AcDbLine
 10
104.4070913462
 20
37.4537365732
 30
0.0
 11
156.8070913462
 21
37.4537365732
 31
0.0
  0
LINE
  5
DB
330
1F
100
AcDbEntity
  8
0
  6
Continuous
 62
     7
370
    25
100
AcDbLine
 10
104.4070913462
 20
-52.5462634268
 30
0.0
 11
156.8070913462
 21
-52.5462634268
 31
0.0
  0
LINE
  5
DC
330
1F
100
AcDbEntity
  8
0
  6
Continuous
 62
     1
370
    25
100
AcDbLine
 10
103.4070913462
 20
4.9537365732
 30
0.0
 11
157.8070913462
 21
4.9537365732
 31
0.0
  0
LINE
  5
DD
330
1F
100
AcDbEntity
  8
0
  6
Continuous
 62
     1
370
    25
100
AcDbLine
 10
103.4070913462
 20
-20.0462634268
 30
0.0
 11
157.8070913462
 21
-20.0462634268
 31
0.0
  0
INSERT
  5
E9
330
1F
100
AcDbEntity
  8
FORMAT
 62
     7
100
AcDbBlockReference
  2
SW_CENTERMARKSYMBOL_1
 10
130.6070913462
 20
25.4537365732
 30
0.0
  0
INSERT
  5
F5
330
1F
100
AcDbEntity
  8
FORMAT
 62
     7
100
AcDbBlockReference
  2
SW_CENTERMARKSYMBOL_2
 10
130.6070913462
 20
-40.5462634268
 30
0.0
  0
SPLINE
  5
F6
330
1F
100
AcDbEntity
  8
0
  6
Continuous
 62
     7
370
    25
100
AcDbSpline
210
0.0
220
0.0
230
1.0
 70
     8
 71
     3
 72
    11
 73
     7
 74
     0
 42
0.00000001
 43
0.00000001
 40
0.0
 40
0.0
 40
0.0
 40
0.0
 40
0.2372543979531175
 40
0.5309326009296611
 40
0.8244287582713192
 40
1.0
 40
1.0
 40
1.0
 40
1.0
 10
197.4733492991108
 20
7.093461314607191
 30
0.0
 10
196.2573325246069
 20
6.346896955103595
 30
0.0
 10
193.536106050276
 20
4.676220413078211
 30
0.0
 10
189.3631527074439
 20
2.001705055806963
 30
0.0
 10
185.5300014017065
 20
-0.5127235633308267
 30
0.0
 10
183.2049541227649
 20
-2.103021894809949
 30
0.0
 10
182.3346923253116
 20
-2.698268235378947
 30
0.0
  0
SPLINE
  5
F7
330
1F
100
AcDbEntity
  8
0
  6
Continuous
 62
     7
370
    25
100
AcDbSpline
210
0.0
220
0.0
230
1.0
 70
     8
 71
     3
 72
    13
 73
     9
 74
     0
 42
0.00000001
 43
0.00000001
 40
0.0
 40
0.0
 40
0.0
 40
0.0
 40
0.1308528216455045
 40
0.3257260279351676
 40
0.5206156019365813
 40
0.7155022939389611
 40
0.910367184328372
 40
1.0
 40
1.0
 40
1.0
 40
1.0
 10
208.4986323461324
 20
-48.02048690092104
 30
0.0
 10
209.5675747909246
 20
-47.50655494896345
 30
0.0
 10
212.2284450133241
 20
-46.2272473174198
 30
0.0
 10
216.4452451509351
 20
-44.10057456264029
 30
0.0
 10
221.1522940211659
 20
-41.65327157420627
 30
0.0
 10
225.8208203675739
 20
-39.12980159484596
 30
0.0
 10
229.6257615941394
 20
-37.01649375106763
 30
0.0
 10
231.8593715303084
 20
-35.71930829457068
 30
0.0
 10
232.5630845776396
 20
-35.31062174829265
 30
0.0
  0
LINE
  5
F8
330
1F
100
AcDbEntity
  8
0
  6
Continuous
 62
     7
370
    25
100
AcDbLine
 10
211.4733492991
 20
1.5180218067
 30
0.0
 11
211.4733492991
 21
14.9806061975
 31
0.0
  0
LINE
  5
F9
330
1F
100
AcDbEntity
  8
0
  6
Continuous
 62
     7
370
    25
100
AcDbLine
 10
197.4733492991
 20
14.9806061975
 30
0.0
 11
197.4733492991
 21
1.1997427473
 31
0.0
  0
LINE
  5
FA
330
1F
100
AcDbEntity
  8
0
  6
Continuous
 62
     7
370
    25
100
AcDbLine
 10
223.0478130792
 20
21.9991648871
 30
0.0
 11
211.4508451056
 21
15.3043777785
 31
0.0
  0
LINE
  5
FB
330
1F
100
AcDbEntity
  8
0
  6
Continuous
 62
     7
370
    25
100
AcDbLine
 10
232.5679330773
 20
-35.3189946242
 30
0.0
 11
250.2456026069
 21
-25.1138932264
 31
0.0
  0
SPLINE
  5
FC
330
1F
100
AcDbEntity
  8
0
  6
Continuous
 62
     7
370
    25
100
AcDbSpline
210
0.0
220
0.0
230
1.0
 70
     8
 71
     3
 72
    13
 73
     9
 74
     0
 42
0.00000001
 43
0.00000001
 40
0.0
 40
0.0
 40
0.0
 40
0.0
 40
0.01062389874946
 40
0.2324537253674845
 40
0.4543021838269394
 40
0.6761473616233582
 40
0.8979677220109915
 40
1.0
 40
1.0
 40
1.0
 40
1.0
 10
244.1423968574231
 20
33.26114560978549
 30
0.0
 10
244.0662324029328
 20
33.22431708587662
 30
0.0
 10
242.3997339164183
 20
32.41849920448574
 30
0.0
 10
239.1719806352692
 20
30.77738989524117
 30
0.0
 10
234.4630550815945
 20
28.33434212261506
 30
0.0
 10
229.7950343266273
 20
25.80972575478348
 30
0.0
 10
225.9899691597014
 20
23.69668630311785
 30
0.0
 10
223.7563631240054
 20
22.39947938778348
 30
0.0
 10
223.0526482705632
 20
21.99078431814279
 30
0.0
  0
SPLINE
  5
FD
330
1F
100
AcDbEntity
  8
0
  6
Continuous
 62
     7
370
    25
100
AcDbSpline
210
0.0
220
0.0
230
1.0
 70
     8
 71
     3
 72
    13
 73
     9
 74
     0
 42
0.00000001
 43
0.00000001
 40
0.0
 40
0.0
 40
0.0
 40
0.0
 40
0.1051949265685836
 40
0.299966266191877
 40
0.4946540110881224
 40
0.6892397054875566
 40
0.8837047798483287
 40
1.0
 40
1.0
 40
1.0
 40
1.0
 10
250.2407541073033
 20
-25.10552035050876
 30
0.0
 10
251.0686495632078
 20
-24.62939748109949
 30
0.0
 10
253.4294165393889
 20
-23.2717198435554
 30
0.0
 10
257.2790129965249
 20
-20.95906012485274
 30
0.0
 10
261.7906940186049
 20
-18.17559701408563
 30
0.0
 10
266.2532894730373
 20
-15.32261713848563
 30
0.0
 10
270.0853851620225
 20
-12.80713381396362
 30
0.0
 10
272.4102406687553
 20
-11.21712349019151
 30
0.0
 10
273.2802668199419
 20
-10.62209702152177
 30
0.0
  0
LINE
  5
FE
330
1F
100
AcDbEntity
  8
0
  6
Continuous
 62
     7
370
    25
100
AcDbLine
 10
258.1423968574
 20
28.1412995246
 30
0.0
 11
258.1423968574
 21
41.9220738877
 31
0.0
  0
LINE
  5
FF
330
1F
100
AcDbEntity
  8
0
  6
Continuous
 62
     7
370
    25
100
AcDbLine
 10
244.1423968574
 20
41.9220738877
 30
0.0
 11
244.1423968574
 21
28.459106268
 31
0.0
  0
LWPOLYLINE
  5
100
330
1F
100
AcDbEntity
  8
0
  6
Continuous
 62
     7
370
    25
100
AcDbPolyline
 90
      110
 70
   128
 43
0.0
 10
177.4618702578
 20
-14.3341511196
 10
177.4926413406
 20
-13.1194004432
 10
177.5848523704
 20
-11.9442125823
 10
177.7381970317
 20
-10.8124913928
 10
177.9521659287
 20
-9.7279963387
 10
178.2260482783
 20
-8.6943300035
 10
178.558934271
 20
-7.7149261228
 10
178.9497180929
 20
-6.7930381779
 10
179.3971015994
 20
-5.9317285877
 10
179.8995986276
 20
-5.1338585361
 10
180.4555399328
 20
-4.4020784672
 10
181.063078734
 20
-3.7388192807
 10
181.7201968484
 20
-3.1462842571
 10
182.4247113956
 20
-2.626441738
 10
183.1742820492
 20
-2.181018588
 10
183.9664188108
 20
-1.811494458
 10
184.7984902818
 20
-1.51909687
 10
185.6677324045
 20
-1.3047971395
 10
186.5712576439
 20
-1.1693071485
 10
187.50606458
 20
-1.1130769812
 10
188.4690478783
 20
-1.1362934286
 10
189.457008605
 20
-1.2388793679
 10
190.4666648539
 20
-1.4204940189
 10
191.4946626486
 20
-1.6805340761
 10
192.5375870837
 20
-2.0181357126
 10
193.5919736692
 20
-2.4321774496
 10
194.6543198388
 20
-2.9212838822
 10
195.7210965855
 20
-3.4838302479
 10
196.7887601841
 20
-4.1179478244
 10
197.8537639635
 20
-4.8215301367
 10
198.9125700883
 20
-5.5922399552
 10
199.961661311
 20
-6.4275170595
 10
200.9975526561
 20
-7.3245867428
 10
202.0168029967
 20
-8.2804690301
 10
203.0160264857
 20
-9.2919885764
 10
203.9919038031
 20
-10.3557852156
 10
204.9411931827
 20
-11.4683251222
 10
205.8607411805
 20
-12.6259125504
 10
206.7474931506
 20
-13.8247021114
 10
207.5985033922
 20
-15.0607115467
 10
208.4109449347
 20
-16.3298349572
 10
209.1821189291
 20
-17.6278564427
 10
209.909463613
 20
-18.9504641063
 10
210.5905628204
 20
-20.2932643783
 10
211.2231540083
 20
-21.6517966113
 10
211.8051357723
 20
-23.0215478978
 10
212.3345748276
 20
-24.3979680619
 10
212.8097124309
 20
-25.776484774
 10
213.2289702228
 20
-27.1525187405
 10
213.5909554711
 20
-28.5214989147
 10
213.8944656972
 20
-29.8788776823
 10
214.1384926707
 20
-31.2201459674
 10
214.3222257585
 20
-32.5408482117
 10
214.4450546178
 20
-33.8365971753
 10
214.5065712234
 20
-35.1030885102
 10
214.5065712234
 20
-36.3361150598
 10
214.4450546178
 20
-37.5315808337
 10
214.3222257585
 20
-38.6855146149
 10
214.1384926707
 20
-39.7940831515
 10
213.8944656972
 20
-40.8536038901
 10
213.5909554711
 20
-41.8605572096
 10
213.2289702228
 20
-42.8115981122
 10
212.8097124309
 20
-43.7035673358
 10
212.3345748276
 20
-44.5335018481
 10
211.8051357723
 20
-45.2986446903
 10
211.2231540083
 20
-45.9964541348
 10
210.5905628204
 20
-46.6246121287
 10
209.909463613
 20
-47.1810319944
 10
209.1821189291
 20
-47.6638653611
 10
208.4109449347
 20
-48.0715083049
 10
207.5985033922
 20
-48.4026066768
 10
206.7474931506
 20
-48.6560606015
 10
205.8607411805
 20
-48.8310281304
 10
204.9411931827
 20
-48.926928039
 10
203.9919038031
 20
-48.9434417575
 10
203.0160264857
 20
-48.880514429
 10
202.0168029967
 20
-48.7383550917
 10
200.9975526561
 20
-48.5174359846
 10
199.961661311
 20
-48.2184909789
 10
198.9125700883
 20
-47.8425131396
 10
197.8537639635
 20
-47.3907514275
 10
196.7887601841
 20
-46.8647065494
 10
195.7210965855
 20
-46.2661259737
 10
194.6543198388
 20
-45.5969981247
 10
193.5919736692
 20
-44.8595457778
 10
192.5375870837
 20
-44.0562186757
 10
191.4946626486
 20
-43.1896853901
 10
190.4666648539
 20
-42.2628244574
 10
189.457008605
 20
-41.2787148166
 10
188.4690478783
 20
-40.2406255808
 10
187.50606458
 20
-39.1520051781
 10
186.5712576439
 20
-38.016469896
 10
185.6677324045
 20
-36.8377918685
 10
184.7984902818
 20
-35.6198865455
 10
183.9664188108
 20
-34.3667996859
 10
183.1742820492
 20
-33.0826939184
 10
182.4247113956
 20
-31.7718349131
 10
181.7201968484
 20
-30.4385772118
 10
181.063078734
 20
-29.0873497625
 10
180.4555399328
 20
-27.722641207
 10
179.8995986276
 20
-26.3489849698
 10
179.3971015994
 20
-24.9709441987
 10
178.9497180929
 20
-23.5930966067
 10
178.558934271
 20
-22.2200192648
 10
178.2260482783
 20
-20.856273398
 10
177.9521659287
 20
-19.5063892328
 10
177.7381970317
 20
-18.1748509486
 10
177.5848523704
 20
-16.8660817819
 10
177.4926413406
 20
-15.584429332
 10
177.4618702578
 20
-14.3341511196
  0
SPLINE
  5
101
330
1F
100
AcDbEntity
  8
0
  6
Continuous
 62
     7
370
    25
100
AcDbSpline
210
0.0
220
0.0
230
1.0
 70
     8
 71
     3
 72
    17
 73
    13
 74
     0
 42
0.00000001
 43
0.00000001
 40
0.0
 40
0.0
 40
0.0
 40
0.0
 40
0.1067241061604584
 40
0.2134431855984054
 40
0.3202375539956527
 40
0.42702128254867
 40
0.5323051908614513
 40
0.6375911735630115
 40
0.7417733949205454
 40
0.8459658482073935
 40
0.9517057826594267
 40
1.0
 40
1.0
 40
1.0
 40
1.0
 10
204.5469542832739
 20
-2.847545536119464
 30
0.0
 10
204.1540018912021
 20
-2.80648523991259
 30
0.0
 10
203.3681156151794
 20
-2.724366581445374
 30
0.0
 10
202.2182997442179
 20
-2.464781209214469
 30
0.0
 10
201.1316407190951
 20
-2.122554102432708
 30
0.0
 10
200.140853668513
 20
-1.706995555277539
 30
0.0
 10
199.2783012111321
 20
-1.236615338328487
 30
0.0
 10
198.564754452097
 20
-0.7283631291303383
 30
0.0
 10
198.017199833427
 20
-0.1928234369323052
 30
0.0
 10
197.652665354487
 20
0.3632399023125899
 30
0.0
 10
197.4761681651337
 20
0.8295924860244185
 30
0.0
 10
197.4926746041782
 20
1.111318909546609
 30
0.0
 10
197.4978498561951
 20
1.199648393429385
 30
0.0
  0
SPLINE
  5
102
330
1F
100
AcDbEntity
  8
0
  6
Continuous
 62
     7
370
    25
100
AcDbSpline
210
0.0
220
0.0
230
1.0
 70
     8
 71
     3
 72
    17
 73
    13
 74
     0
 42
0.00000001
 43
0.00000001
 40
0.0
 40
0.0
 40
0.0
 40
0.0
 40
0.0718346829722913
 40
0.1801207524323967
 40
0.290158243757663
 40
0.400176420668709
 40
0.507619178406619
 40
0.6150565108981394
 40
0.7196013117927843
 40
0.8241578565844626
 40
0.9120766782128072
 40
1.0
 40
1.0
 40
1.0
 40
1.0
 10
211.4511559920156
 20
1.518379385582423
 30
0.0
 10
211.4512669172386
 20
1.335843111226359
 30
0.0
 10
211.4515450549544
 20
0.8781453846852347
 30
0.0
 10
211.2287298150349
 20
0.1512499350862968
 30
0.0
 10
210.80706451003
 20
-0.6214415752324269
 30
0.0
 10
210.1965459487519
 20
-1.315217690579173
 30
0.0
 10
209.4229911273717
 20
-1.895763412290567
 30
0.0
 10
208.5248484104756
 20
-2.348299498876165
 30
0.0
 10
207.5219679577321
 20
-2.662976888020532
 30
0.0
 10
206.5065788390901
 20
-2.835038132351566
 30
0.0
 10
205.5062552616823
 20
-2.89598979341998
 30
0.0
 10
204.8667267316895
 20
-2.863693897392237
 30
0.0
 10
204.5469542832739
 20
-2.847545536119464
 30
0.0
  0
LWPOLYLINE
  5
103
330
1F
100
AcDbEntity
  8
0
  6
Continuous
 62
     7
370
    25
100
AcDbPolyline
 90
       97
 70
   128
 43
0.0
 10
181.7045109449
 20
-16.7833754551
 10
181.7350931368
 20
-15.722262829
 10
181.8267087549
 20
-14.7010034973
 10
181.9789654871
 20
-13.7239706493
 10
182.1912113466
 20
-12.7953480895
 10
182.4625374642
 20
-11.9191123223
 10
182.7917819796
 20
-11.0990155239
 10
183.1775350174
 20
-10.3385694745
 10
183.6181447238
 20
-9.6410305211
 10
184.1117243404
 20
-9.0093856323
 10
184.6561602836
 20
-8.4463396087
 10
185.2491211949
 20
-7.9543034996
 10
185.8880679249
 20
-7.5353842794
 10
186.5702644054
 20
-7.1913758244
 10
187.2927893664
 20
-6.9237512316
 10
188.0525488452
 20
-6.7336565106
 10
188.8462894349
 20
-6.6219056762
 10
189.6706122165
 20
-6.5889772626
 10
190.5219873134
 20
-6.6350122743
 10
191.3967690066
 20
-6.7598135824
 10
192.2912113466
 20
-6.9628467685
 10
193.2014841941
 20
-7.2432424133
 10
194.1236896209
 20
-7.5997998196
 10
195.0538786018
 20
-8.0309921539
 10
195.9880679249
 20
-8.5349729844
 10
196.9222572479
 20
-9.1095841878
 10
197.8524462288
 20
-9.7523651907
 10
198.7746516556
 20
-10.4605635062
 10
199.6849245031
 20
-11.2311465204
 10
200.5793668431
 20
-12.0608144785
 10
201.4541485363
 20
-12.9460146149
 10
202.3055236332
 20
-13.8829563667
 10
203.1298464149
 20
-14.8676276056
 10
203.9235870046
 20
-15.895811818
 10
204.6833464833
 20
-16.9631061615
 10
205.4058714444
 20
-18.0649403177
 10
206.0880679249
 20
-19.1965960635
 10
206.7270146548
 20
-20.3532274755
 10
207.3199755662
 20
-21.5298816803
 10
207.8644115093
 20
-22.7215200639
 10
208.3579911259
 20
-23.9230398479
 10
208.7986008323
 20
-25.12929594
 10
209.1843538701
 20
-26.3351229666
 10
209.5135983856
 20
-27.5353573911
 10
209.7849245031
 20
-28.7248596255
 10
209.9971703626
 20
-29.8985360386
 10
210.1494270948
 20
-31.0513607678
 10
210.2410427129
 20
-32.1783972406
 10
210.2716249048
 20
-33.2748193139
 10
210.2410427129
 20
-34.33593194
 10
210.1494270948
 20
-35.3571912717
 10
209.9971703626
 20
-36.3342241198
 10
209.7849245031
 20
-37.2628466796
 10
209.5135983856
 20
-38.1390824467
 10
209.1843538701
 20
-38.9591792452
 10
208.7986008323
 20
-39.7196252945
 10
208.3579911259
 20
-40.417164248
 10
207.8644115093
 20
-41.0488091367
 10
207.3199755662
 20
-41.6118551604
 10
206.7270146548
 20
-42.1038912694
 10
206.0880679249
 20
-42.5228104896
 10
205.4058714444
 20
-42.8668189447
 10
204.6833464833
 20
-43.1344435375
 10
203.9235870046
 20
-43.3245382585
 10
203.1298464149
 20
-43.4362890929
 10
202.3055236332
 20
-43.4692175065
 10
201.4541485363
 20
-43.4231824947
 10
200.5793668431
 20
-43.2983811866
 10
199.6849245031
 20
-43.0953480005
 10
198.7746516556
 20
-42.8149523557
 10
197.8524462288
 20
-42.4583949494
 10
196.9222572479
 20
-42.0272026151
 10
195.9880679249
 20
-41.5232217846
 10
195.0538786018
 20
-40.9486105812
 10
194.1236896209
 20
-40.3058295783
 10
193.2014841941
 20
-39.5976312628
 10
192.2912113466
 20
-38.8270482486
 10
191.3967690066
 20
-37.9973802906
 10
190.5219873134
 20
-37.1121801542
 10
189.6706122165
 20
-36.1752384023
 10
188.8462894349
 20
-35.1905671635
 10
188.0525488452
 20
-34.162382951
 10
187.2927893664
 20
-33.0950886076
 10
186.5702644054
 20
-31.9932544514
 10
185.8880679249
 20
-30.8615987055
 10
185.2491211949
 20
-29.7049672935
 10
184.6561602836
 20
-28.5283130888
 10
184.1117243404
 20
-27.3366747051
 10
183.6181447238
 20
-26.1351549212
 10
183.1775350174
 20
-24.928898829
 10
182.7917819796
 20
-23.7230718024
 10
182.4625374642
 20
-22.5228373779
 10
182.1912113466
 20
-21.3333351435
 10
181.9789654871
 20
-20.1596587304
 10
181.8267087549
 20
-19.0068340012
 10
181.7350931368
 20
-17.8797975284
 10
181.7045109449
 20
-16.7833754551
  0
LWPOLYLINE
  5
104
330
1F
100
AcDbEntity
  8
0
  6
Continuous
 62
     7
370
    25
100
AcDbPolyline
 90
       57
 70
   128
 43
0.0
 10
209.4230967674
 20
17.8380345889
 10
209.9461696764
 20
17.5001372061
 10
210.4004186937
 20
17.130555259
 10
210.7801313744
 20
16.733936455
 10
211.0805326113
 20
16.3152685057
 10
211.2978446844
 20
15.8798164035
 10
211.4293347684
 20
15.4330562112
 10
211.4733492991
 20
14.9806061975
 10
211.4293347684
 20
14.5281561838
 10
211.2978446844
 20
14.0813959915
 10
211.0805326113
 20
13.6459438893
 10
210.7801313744
 20
13.22727594
 10
210.4004186937
 20
12.8306571361
 10
209.9461696764
 20
12.4610751889
 10
209.4230967674
 20
12.1231778061
 10
208.8377779121
 20
11.8212142433
 10
208.1975738347
 20
11.5589818673
 10
207.5105354729
 20
11.3397784026
 10
206.7853027328
 20
11.1663604599
 10
206.0309958368
 20
11.0409088704
 10
205.2571006318
 20
10.9650012607
 10
204.4733492991
 20
10.9395922129
 10
203.6895979664
 20
10.9650012607
 10
202.9157027614
 20
11.0409088704
 10
202.1613958654
 20
11.1663604599
 10
201.4361631253
 20
11.3397784026
 10
200.7491247635
 20
11.5589818673
 10
200.1089206861
 20
11.8212142433
 10
199.5236018308
 20
12.1231778061
 10
199.0005289218
 20
12.4610751889
 10
198.5462799045
 20
12.8306571361
 10
198.1665672238
 20
13.22727594
 10
197.866165987
 20
13.6459438893
 10
197.6488539138
 20
14.0813959915
 10
197.5173638299
 20
14.5281561838
 10
197.4733492991
 20
14.9806061975
 10
197.5173638299
 20
15.4330562112
 10
197.6488539138
 20
15.8798164035
 10
197.866165987
 20
16.3152685057
 10
198.1665672238
 20
16.733936455
 10
198.5462799045
 20
17.130555259
 10
199.0005289218
 20
17.5001372061
 10
199.5236018308
 20
17.8380345889
 10
200.1089206861
 20
18.1399981518
 10
200.7491247635
 20
18.4022305277
 10
201.4361631253
 20
18.6214339924
 10
202.1613958654
 20
18.7948519351
 10
202.9157027614
 20
18.9203035246
 10
203.6895979664
 20
18.9962111344
 10
204.4733492991
 20
19.0216201821
 10
205.2571006318
 20
18.9962111344
 10
206.0309958368
 20
18.9203035246
 10
206.7853027328
 20
18.7948519351
 10
207.5105354729
 20
18.6214339924
 10
208.1975738347
 20
18.4022305277
 10
208.8377779121
 20
18.1399981518
 10
209.4230967674
 20
17.8380345889
  0
LWPOLYLINE
  5
105
330
1F
100
AcDbEntity
  8
0
  6
Continuous
 62
     7
370
    25
100
AcDbPolyline
 90
       48
 70
   128
 43
0.0
 10
208.008883205
 20
17.0216264771
 10
208.4485779118
 20
16.7313740705
 10
208.8173345699
 20
16.4098791698
 10
209.1085727078
 20
16.0628788591
 10
209.3170951742
 20
15.696565367
 10
209.4391808807
 20
15.3174755666
 10
209.472651205
 20
14.9323743244
 10
209.4169088684
 20
14.548133781
 10
209.2729485941
 20
14.1716107182
 10
209.0433393567
 20
13.8095241989
 10
208.7321785385
 20
13.4683356656
 10
208.3450188116
 20
13.1541336357
 10
207.8887690505
 20
12.872525052
 10
207.371571043
 20
12.6285352263
 10
206.8026541999
 20
12.4265181627
 10
206.1921708556
 20
12.2700788607
 10
205.5510151
 20
12.1620089832
 10
204.8906283725
 20
12.1042370397
 10
204.2227952902
 20
12.0977939721
 10
203.55943335
 20
12.1427947569
 10
202.9123802617
 20
12.238436354
 10
202.2931827027
 20
12.383012037
 10
201.7128902684
 20
12.5739418493
 10
201.1818582908
 20
12.807818644
 10
200.7095630482
 20
13.080468884
 10
200.3044326605
 20
13.3870271193
 10
199.973696689
 20
13.7220228111
 10
199.7232571248
 20
14.0794779532
 10
199.5575830681
 20
14.4530137502
 10
199.4796309762
 20
14.8359644469
 10
199.4907919061
 20
15.2214962791
 10
199.5908666907
 20
15.6027294221
 10
199.7780694931
 20
15.9728607614
 10
200.0490596749
 20
16.3252852944
 10
200.3990014098
 20
16.6537139972
 10
200.8216499794
 20
16.9522860516
 10
201.3094632098
 20
17.2156734323
 10
201.8537360624
 20
17.4391759853
 10
202.4447559753
 20
17.6188053021
 10
203.0719761842
 20
17.7513558935
 10
203.7242039294
 20
17.8344623908
 10
204.3898001916
 20
17.8666417568
 10
205.0568873895
 20
17.8473197499
 10
205.7135613364
 20
17.7768411717
 10
206.3481036701
 20
17.6564637141
 10
206.9491909676
 20
17.4883355158
 10
207.5060968119
 20
17.2754568284
 10
208.008883205
 20
17.0216264771
  0
LWPOLYLINE
  5
106
330
1F
100
AcDbEntity
  8
0
  6
Continuous
 62
     7
370
    25
100
AcDbPolyline
 90
       44
 70
   128
 43
0.0
 10
258.1423968574
 20
33.8912073866
 10
258.2939301456
 20
33.8170811498
 10
259.3607068923
 20
33.2545347841
 10
260.4283704908
 20
32.6204172077
 10
261.4933742703
 20
31.9168348953
 10
262.5521803951
 20
31.1461250768
 10
263.6012716178
 20
30.3108479726
 10
264.6371629629
 20
29.4137782892
 10
265.6564133035
 20
28.4578960019
 10
266.6556367925
 20
27.4463764556
 10
267.6315141099
 20
26.3825798164
 10
268.5808034895
 20
25.2700399098
 10
269.5003514873
 20
24.1124524816
 10
270.3871034574
 20
22.9136629206
 10
271.2381136989
 20
21.6776534854
 10
272.0505552415
 20
20.4085300748
 10
272.8217292359
 20
19.1105085893
 10
273.5490739198
 20
17.7879009258
 10
274.2301731272
 20
16.4451006537
 10
274.862764315
 20
15.0865684207
 10
275.4447460791
 20
13.7168171342
 10
275.9741851344
 20
12.3403969702
 10
276.4493227376
 20
10.961880258
 10
276.8685805295
 20
9.5858462916
 10
277.2305657779
 20
8.2168661173
 10
277.534076004
 20
6.8594873498
 10
277.7781029775
 20
5.5182190646
 10
277.9618360653
 20
4.1975168203
 10
278.0846649246
 20
2.9017678568
 10
278.1461815302
 20
1.6352765218
 10
278.1461815302
 20
0.4022499723
 10
278.0846649246
 20
-0.7932158017
 10
277.9618360653
 20
-1.9471495829
 10
277.7781029775
 20
-3.0557181194
 10
277.534076004
 20
-4.1152388581
 10
277.2305657779
 20
-5.1221921776
 10
276.8685805295
 20
-6.0732330802
 10
276.4493227376
 20
-6.9652023037
 10
275.9741851344
 20
-7.7951368161
 10
275.4447460791
 20
-8.5602796583
 10
274.862764315
 20
-9.2580891027
 10
274.2301731272
 20
-9.8862470967
 10
273.5490739198
 20
-10.4426669624
 10
273.2845485496
 20
-10.6304414985
  0
SPLINE
  5
107
330
1F
100
AcDbEntity
  8
0
  6
Continuous
 62
     7
370
    25
100
AcDbSpline
210
0.0
220
0.0
230
1.0
 70
     8
 71
     3
 72
    17
 73
    13
 74
     0
 42
0.00000001
 43
0.00000001
 40
0.0
 40
0.0
 40
0.0
 40
0.0
 40
0.105657361175822
 40
0.2113019127575091
 40
0.3170919685029241
 40
0.4228643000429424
 40
0.5259714065761977
 40
0.6290804751871522
 40
0.730336735841152
 40
0.8316088572204569
 40
0.9350319427315774
 40
1.0
 40
1.0
 40
1.0
 40
1.0
 10
251.3157620870562
 20
24.39838072197984
 30
0.0
 10
250.9244715170998
 20
24.45266230052643
 30
0.0
 10
250.1419378161284
 20
24.56121887667739
 30
0.0
 10
248.9906499021143
 20
24.8487579672812
 30
0.0
 10
247.8971587365456
 20
25.21036234242336
 30
0.0
 10
246.8986186413321
 20
25.63439056732637
 30
0.0
 10
246.0279272293295
 20
26.10125321028547
 30
0.0
 10
245.3065203765663
 20
26.59233465727782
 30
0.0
 10
244.7480967130928
 20
27.09836467051374
 30
0.0
 10
244.3631990657442
 20
27.61331519443404
 30
0.0
 10
244.1599168292138
 20
28.06896707843897
 30
0.0
 10
244.1632957389569
 20
28.35068894192841
 30
0.0
 10
244.1645993776048
 20
28.45938184500414
 30
0.0
  0
SPLINE
  5
108
330
1F
100
AcDbEntity
  8
0
  6
Continuous
 62
     7
370
    25
100
AcDbSpline
210
0.0
220
0.0
230
1.0
 70
     8
 71
     3
 72
    17
 73
    13
 74
     0
 42
0.00000001
 43
0.00000001
 40
0.0
 40
0.0
 40
0.0
 40
0.0
 40
0.0636435177179616
 40
0.1727071879765885
 40
0.2819968699101085
 40
0.3912726611015031
 40
0.4979185382927143
 40
0.6045689779266151
 40
0.7099896319881916
 40
0.8154262648973828
 40
0.9077113567311061
 40
1.0
 40
1.0
 40
1.0
 40
1.0
 10
258.1179578718031
 20
28.14150592360098
 30
0.0
 10
258.1206677443316
 20
27.99029013412552
 30
0.0
 10
258.1280214306291
 20
27.57994113528956
 30
0.0
 10
257.9213082753535
 20
26.92671309644367
 30
0.0
 10
257.516663467429
 20
26.22214591396062
 30
0.0
 10
256.9276741001072
 20
25.60292114977322
 30
0.0
 10
256.180583324532
 20
25.09633157149981
 30
0.0
 10
255.3087167600583
 20
24.71104046950993
 30
0.0
 10
254.3292923410613
 20
24.4556549286986
 30
0.0
 10
253.3182742680893
 20
24.33094856078716
 30
0.0
 10
252.3055492361244
 20
24.31115128712396
 30
0.0
 10
251.6456953688903
 20
24.36930387071781
 30
0.0
 10
251.3157620870562
 20
24.39838072197984
 30
0.0
  0
LWPOLYLINE
  5
109
330
1F
100
AcDbEntity
  8
0
  6
Continuous
 62
     7
370
    25
100
AcDbPolyline
 90
       57
 70
   128
 43
0.0
 10
246.1926493891
 20
39.0646454963
 10
245.6695764801
 20
39.4025428791
 10
245.2153274628
 20
39.7721248262
 10
244.8356147821
 20
40.1687436302
 10
244.5352135453
 20
40.5874115795
 10
244.3179014722
 20
41.0228636817
 10
244.1864113882
 20
41.4696238739
 10
244.1423968574
 20
41.9220738877
 10
244.1864113882
 20
42.3745239014
 10
244.3179014722
 20
42.8212840936
 10
244.5352135453
 20
43.2567361958
 10
244.8356147821
 20
43.6754041451
 10
245.2153274628
 20
44.0720229491
 10
245.6695764801
 20
44.4416048962
 10
246.1926493891
 20
44.779502279
 10
246.7779682444
 20
45.0814658419
 10
247.4181723218
 20
45.3436982178
 10
248.1052106836
 20
45.5629016825
 10
248.8304434237
 20
45.7363196253
 10
249.5847503197
 20
45.8617712148
 10
250.3586455247
 20
45.9376788245
 10
251.1423968574
 20
45.9630878723
 10
251.9261481901
 20
45.9376788245
 10
252.7000433951
 20
45.8617712148
 10
253.4543502911
 20
45.7363196253
 10
254.1795830312
 20
45.5629016825
 10
254.866621393
 20
45.3436982178
 10
255.5068254704
 20
45.0814658419
 10
256.0921443257
 20
44.779502279
 10
256.6152172347
 20
44.4416048962
 10
257.069466252
 20
44.0720229491
 10
257.4491789327
 20
43.6754041451
 10
257.7495801696
 20
43.2567361958
 10
257.9668922427
 20
42.8212840936
 10
258.0983823267
 20
42.3745239014
 10
258.1423968574
 20
41.9220738877
 10
258.0983823267
 20
41.4696238739
 10
257.9668922427
 20
41.0228636817
 10
257.7495801696
 20
40.5874115795
 10
257.4491789327
 20
40.1687436302
 10
257.069466252
 20
39.7721248262
 10
256.6152172347
 20
39.4025428791
 10
256.0921443257
 20
39.0646454963
 10
255.5068254704
 20
38.7626819334
 10
254.866621393
 20
38.5004495575
 10
254.1795830312
 20
38.2812460928
 10
253.4543502911
 20
38.1078281501
 10
252.7000433951
 20
37.9823765606
 10
251.9261481901
 20
37.9064689508
 10
251.1423968574
 20
37.8810599031
 10
250.3586455247
 20
37.9064689508
 10
249.5847503197
 20
37.9823765606
 10
248.8304434237
 20
38.1078281501
 10
248.1052106836
 20
38.2812460928
 10
247.4181723218
 20
38.5004495575
 10
246.7779682444
 20
38.7626819334
 10
246.1926493891
 20
39.0646454963
  0
LWPOLYLINE
  5
10A
330
1F
100
AcDbEntity
  8
0
  6
Continuous
 62
     7
370
    25
100
AcDbPolyline
 90
       48
 70
   128
 43
0.0
 10
247.6068629515
 20
39.8810536081
 10
247.1671682447
 20
40.1713060146
 10
246.7984115867
 20
40.4928009153
 10
246.5071734487
 20
40.8398012261
 10
246.2986509823
 20
41.2061147182
 10
246.1765652758
 20
41.5852045185
 10
246.1430949515
 20
41.9703057608
 10
246.1988372881
 20
42.3545463041
 10
246.3427975624
 20
42.731069367
 10
246.5724067998
 20
43.0931558863
 10
246.883567618
 20
43.4343444196
 10
247.270727345
 20
43.7485464495
 10
247.726977106
 20
44.0301550332
 10
248.2441751135
 20
44.2741448589
 10
248.8130919566
 20
44.4761619224
 10
249.4235753009
 20
44.6326012245
 10
250.0647310566
 20
44.740671102
 10
250.725117784
 20
44.7984430454
 10
251.3929508664
 20
44.8048861131
 10
252.0563128065
 20
44.7598853283
 10
252.7033658949
 20
44.6642437311
 10
253.3225634538
 20
44.5196680481
 10
253.9028558882
 20
44.3287382358
 10
254.4338878657
 20
44.0948614412
 10
254.9061831083
 20
43.8222112012
 10
255.311313496
 20
43.5156529658
 10
255.6420494676
 20
43.1806572741
 10
255.8924890317
 20
42.8232021319
 10
256.0581630884
 20
42.4496663349
 10
256.1361151803
 20
42.0667156382
 10
256.1249542505
 20
41.6811838061
 10
256.0248794659
 20
41.2999506631
 10
255.8376766634
 20
40.9298193238
 10
255.5666864817
 20
40.5773947907
 10
255.2167447467
 20
40.248966088
 10
254.7940961772
 20
39.9503940336
 10
254.3062829467
 20
39.6870066529
 10
253.7620100941
 20
39.4635040999
 10
253.1709901812
 20
39.283874783
 10
252.5437699724
 20
39.1513241917
 10
251.8915422271
 20
39.0682176943
 10
251.225945965
 20
39.0360383284
 10
250.558858767
 20
39.0553603353
 10
249.9021848201
 20
39.1258389135
 10
249.2676424864
 20
39.246216371
 10
248.6665551889
 20
39.4143445694
 10
248.1096493446
 20
39.6272232568
 10
247.6068629515
 20
39.8810536081
  0
LWPOLYLINE
  5
10B
330
1F
100
AcDbEntity
  8
0
  6
Continuous
 62
     1
370
    25
100
AcDbPolyline
 90
       51
 70
   128
 43
0.0
 10
211.4733492991
 20
13.0185097
 10
211.7977761608
 20
12.985747817
 10
212.8189214006
 20
12.8317500081
 10
213.859767319
 20
12.5989695122
 10
214.9169797727
 20
12.2881519953
 10
215.9871721915
 20
11.9002930997
 10
217.0669164264
 20
11.4366352544
 10
218.1527537312
 20
10.8986636952
 10
219.2412058416
 20
10.2881017072
 10
220.3287861174
 20
9.6069051045
 10
221.412010711
 20
8.8572559652
 10
222.4874097275
 20
8.0415556415
 10
223.5515383397
 20
7.1624170675
 10
224.6009878228
 20
6.222656389
 10
225.6323964737
 20
5.2252839428
 10
226.6424603796
 20
4.1734946135
 10
227.6279440013
 20
3.0706575995
 10
228.5856905376
 20
1.9203056201
 10
229.5126320376
 20
0.7261235996
 10
230.4057992283
 20
-0.508063137
 10
231.2623310259
 20
-1.7783011174
 10
232.0794837009
 20
-3.0805213867
 10
232.8546396667
 20
-4.4105525405
 10
233.5853158653
 20
-5.7641340881
 10
234.2691717205
 20
-7.1369300998
 10
234.9040166357
 20
-8.5245430961
 10
235.4878170113
 20
-9.9225281343
 10
236.0187027588
 20
-11.3264070467
 10
236.494973291
 20
-12.7316827861
 10
236.9151029699
 20
-14.1338538305
 10
237.2777459933
 20
-15.5284286033
 10
237.5817407064
 20
-16.9109398613
 10
237.8261133225
 20
-18.2769590039
 10
238.0100810424
 20
-19.6221102601
 10
238.1330545621
 20
-20.9420847048
 10
238.1946399602
 20
-22.232654062
 10
238.1946399602
 20
-23.489684249
 10
238.1330545621
 20
-24.7091486191
 10
238.0100810424
 20
-25.8871408602
 10
237.8261133225
 20
-27.0198875082
 10
237.5817407064
 20
-28.1037600339
 10
237.2777459933
 20
-29.135286467
 10
236.9151029699
 20
-30.1111625172
 10
236.494973291
 20
-31.0282621595
 10
236.0187027588
 20
-31.8836476471
 10
235.4878170113
 20
-32.6745789224
 10
234.9040166357
 20
-33.3985223942
 10
234.2691717205
 20
-34.0531590532
 10
233.5853158653
 20
-34.636391901
 10
232.8546396667
 20
-35.1463526667
 10
232.5679810642
 20
-35.3189669217
  0
LWPOLYLINE
  5
10C
330
1F
100
AcDbEntity
  8
0
  6
Continuous
 62
     1
370
    25
100
AcDbPolyline
 90
       58
 70
   128
 43
0.0
 10
223.0478130792
 20
21.9991648871
 10
223.1432764446
 20
22.0535064782
 10
223.9397497469
 20
22.450570999
 10
224.7769272668
 20
22.7707308657
 10
225.6521272723
 20
23.0129605097
 10
226.562546234
 20
23.1764839964
 10
227.5052678055
 20
23.2607775107
 10
228.4772721653
 20
23.2655710352
 10
229.4754456904
 20
23.1908492148
 10
230.4965909302
 20
23.0368514059
 10
231.5374368486
 20
22.80407091
 10
232.5946493023
 20
22.4932533931
 10
233.6648417211
 20
22.1053944975
 10
234.7445859561
 20
21.6417366522
 10
235.8304232609
 20
21.103765093
 10
236.9188753713
 20
20.493203105
 10
238.006455647
 20
19.8120065023
 10
239.0896802406
 20
19.062357363
 10
240.1650792572
 20
18.2466570393
 10
241.2292078694
 20
17.3675184653
 10
242.2786573524
 20
16.4277577867
 10
243.3100660034
 20
15.4303853405
 10
244.3201299093
 20
14.3785960113
 10
245.3056135309
 20
13.2757589972
 10
246.2633600672
 20
12.1254070179
 10
247.1903015673
 20
10.9312249974
 10
248.083468758
 20
9.6970382608
 10
248.9400005556
 20
8.4268002803
 10
249.7571532305
 20
7.1245800111
 10
250.5323091964
 20
5.7945488573
 10
251.262985395
 20
4.4409673097
 10
251.9468412501
 20
3.0681712979
 10
252.5816861653
 20
1.6805583016
 10
253.165486541
 20
0.2825732635
 10
253.6963722885
 20
-1.1213056489
 10
254.1726428207
 20
-2.5265813883
 10
254.5927724995
 20
-3.9287524327
 10
254.955415523
 20
-5.3233272055
 10
255.2594102361
 20
-6.7058384635
 10
255.5037828522
 20
-8.0718576061
 10
255.6877505721
 20
-9.4170088623
 10
255.8107240917
 20
-10.736983307
 10
255.8723094899
 20
-12.0275526642
 10
255.8723094899
 20
-13.2845828512
 10
255.8107240917
 20
-14.5040472213
 10
255.6877505721
 20
-15.6820394624
 10
255.5037828522
 20
-16.8147861104
 10
255.2594102361
 20
-17.8986586361
 10
254.955415523
 20
-18.9301850692
 10
254.5927724995
 20
-19.9060611194
 10
254.1726428207
 20
-20.8231607617
 10
253.6963722885
 20
-21.6785462493
 10
253.165486541
 20
-22.4694775246
 10
252.5816861653
 20
-23.1934209964
 10
251.9468412501
 20
-23.8480576555
 10
251.262985395
 20
-24.4312905032
 10
250.5323091964
 20
-24.9412512689
 10
250.2456026069
 20
-25.1138932264
  0
ENDSEC
  0
SECTION
  2
OBJECTS
  0
DICTIONARY
  5
C
330
0
100
AcDbDictionary
281
     1
  3
ACAD_GROUP
350
D
  3
ACAD_LAYOUT
350
1A
  3
ACAD_MLINESTYLE
350
17
  3
ACAD_PLOTSETTINGS
350
19
  3
ACAD_PLOTSTYLENAME
350
E
  3
ACAD_SCALELIST
350
47
  3
DWGPROPS
350
10D
  0
DICTIONARY
  5
D
102
{ACAD_REACTORS
330
C
102
}
330
C
100
AcDbDictionary
281
     1
  0
DICTIONARY
  5
1A
102
{ACAD_REACTORS
330
C
102
}
330
C
100
AcDbDictionary
281
     1
  3
Layout1
350
1E
  3
Layout2
350
26
  3
Model
350
22
  0
DICTIONARY
  5
17
102
{ACAD_REACTORS
330
C
102
}
330
C
100
AcDbDictionary
281
     1
  3
Standard
350
18
  0
DICTIONARY
  5
19
102
{ACAD_REACTORS
330
C
102
}
330
C
100
AcDbDictionary
281
     1
  0
ACDBDICTIONARYWDFLT
  5
E
102
{ACAD_REACTORS
330
C
102
}
330
C
100
AcDbDictionary
281
     1
  3
Normal
350
F
100
AcDbDictionaryWithDefault
340
F
  0
DICTIONARY
  5
47
102
{ACAD_REACTORS
330
C
102
}
330
C
100
AcDbDictionary
281
     1
  3
A0
350
48
  3
A1
350
49
  3
A2
350
4A
  3
A3
350
4B
  3
A4
350
4C
  3
A5
350
4D
  3
A6
350
4E
  3
A7
350
4F
  3
A8
350
50
  3
A9
350
51
  3
B0
350
52
  3
B1
350
53
  3
B2
350
54
  3
B3
350
55
  3
B4
350
56
  3
B5
350
57
  3
B6
350
58
  3
B7
350
59
  3
B8
350
5A
  3
B9
350
5B
  3
C0
350
5C
  3
C1
350
5D
  3
C2
350
5E
  3
C3
350
5F
  3
C4
350
60
  3
C5
350
61
  3
C6
350
62
  3
C7
350
63
  3
C8
350
64
  3
C9
350
65
  3
D0
350
66
  3
D1
350
67
  3
D2
350
68
  0
XRECORD
  5
10D
102
{ACAD_REACTORS
330
C
102
}
330
C
100
AcDbXrecord
280
     1
  1
DWGPROPS COOKIE
  2

  3

  4

  6

  7

  8
b.kav
  9

300
=
301
=
302
=
303
=
304
=
305
=
306
=
307
=
308
=
309
=
 40
0.0
 41
2459954.239319676
 42
2459954.23932022
  1

 90
        0
  0
LAYOUT
  5
1E
102
{ACAD_REACTORS
330
1A
102
}
330
1A
100
AcDbPlotSettings
  1

  2
none_device
  4

  6

 40
0.0
 41
0.0
 42
0.0
 43
0.0
 44
0.0
 45
0.0
 46
0.0
 47
0.0
 48
0.0
 49
0.0
140
0.0
141
0.0
142
1.0
143
1.0
 70
   688
 72
     1
 73
     0
 74
     5
  7

 75
    16
147
1.0
148
0.0
149
0.0
100
AcDbLayout
  1
Layout1
 70
     1
 71
     1
 10
0.0
 20
0.0
 11
420.0
 21
297.0
 12
0.0
 22
0.0
 32
0.0
 14
1.0000000000E+20
 24
1.0000000000E+20
 34
1.0000000000E+20
 15
-1.0000000000E+20
 25
-1.0000000000E+20
 35
-1.0000000000E+20
146
0.0
 13
0.0
 23
0.0
 33
0.0
 16
1.0
 26
0.0
 36
0.0
 17
0.0
 27
1.0
 37
0.0
 76
     0
330
1B
  0
LAYOUT
  5
26
102
{ACAD_REACTORS
330
1A
102
}
330
1A
100
AcDbPlotSettings
  1

  2
none_device
  4

  6

 40
0.0
 41
0.0
 42
0.0
 43
0.0
 44
0.0
 45
0.0
 46
0.0
 47
0.0
 48
0.0
 49
0.0
140
0.0
141
0.0
142
1.0
143
1.0
 70
   688
 72
     1
 73
     0
 74
     5
  7

 75
    16
147
1.0
148
0.0
149
0.0
100
AcDbLayout
  1
Layout2
 70
     1
 71
     2
 10
0.0
 20
0.0
 11
0.0
 21
0.0
 12
0.0
 22
0.0
 32
0.0
 14
0.0
 24
0.0
 34
0.0
 15
0.0
 25
0.0
 35
0.0
146
0.0
 13
0.0
 23
0.0
 33
0.0
 16
1.0
 26
0.0
 36
0.0
 17
0.0
 27
1.0
 37
0.0
 76
     0
330
23
  0
LAYOUT
  5
22
102
{ACAD_REACTORS
330
1A
102
}
330
1A
100
AcDbPlotSettings
  1

  2
none_device
  4
Letter_(8.50_x_11.00_Inches)
  6

 40
6.35
 41
6.35
 42
6.35000508
 43
6.35000508
 44
215.9
 45
279.4
 46
0.0
 47
0.0
 48
0.0
 49
0.0
140
0.0
141
0.0
142
1.0
143
1.0
 70
  1712
 72
     1
 73
     0
 74
     0
  7

 75
     0
147
1.0
148
0.0
149
0.0
100
AcDbLayout
  1
Model
 70
     1
 71
     0
 10
0.0
 20
0.0
 11
279.4
 21
215.9
 12
0.0
 22
0.0
 32
0.0
 14
0.0
 24
0.0
 34
0.0
 15
279.4
 25
215.9
 35
0.0
146
0.0
 13
0.0
 23
0.0
 33
0.0
 16
1.0
 26
0.0
 36
0.0
 17
0.0
 27
1.0
 37
0.0
 76
     0
330
1F
331
29
  0
MLINESTYLE
  5
18
102
{ACAD_REACTORS
330
17
102
}
330
17
100
AcDbMlineStyle
  2
Standard
 70
     0
  3

 62
   256
 51
90.0
 52
90.0
 71
     2
 49
0.5
 62
   256
  6
BYLAYER
 49
-0.5
 62
   256
  6
BYLAYER
  0
ACDBPLACEHOLDER
  5
F
102
{ACAD_REACTORS
330
E
102
}
330
E
  0
SCALE
  5
48
102
{ACAD_REACTORS
330
47
102
}
330
47
100
AcDbScale
 70
     0
300
1:1
140
1.0
141
1.0
290
     1
  0
SCALE
  5
49
102
{ACAD_REACTORS
330
47
102
}
330
47
100
AcDbScale
 70
     0
300
1:2
140
1.0
141
2.0
290
     0
  0
SCALE
  5
4A
102
{ACAD_REACTORS
330
47
102
}
330
47
100
AcDbScale
 70
     0
300
1:4
140
1.0
141
4.0
290
     0
  0
SCALE
  5
4B
102
{ACAD_REACTORS
330
47
102
}
330
47
100
AcDbScale
 70
     0
300
1:5
140
1.0
141
5.0
290
     0
  0
SCALE
  5
4C
102
{ACAD_REACTORS
330
47
102
}
330
47
100
AcDbScale
 70
     0
300
1:8
140
1.0
141
8.0
290
     0
  0
SCALE
  5
4D
102
{ACAD_REACTORS
330
47
102
}
330
47
100
AcDbScale
 70
     0
300
1:10
140
1.0
141
10.0
290
     0
  0
SCALE
  5
4E
102
{ACAD_REACTORS
330
47
102
}
330
47
100
AcDbScale
 70
     0
300
1:16
140
1.0
141
16.0
290
     0
  0
SCALE
  5
4F
102
{ACAD_REACTORS
330
47
102
}
330
47
100
AcDbScale
 70
     0
300
1:20
140
1.0
141
20.0
290
     0
  0
SCALE
  5
50
102
{ACAD_REACTORS
330
47
102
}
330
47
100
AcDbScale
 70
     0
300
1:30
140
1.0
141
30.0
290
     0
  0
SCALE
  5
51
102
{ACAD_REACTORS
330
47
102
}
330
47
100
AcDbScale
 70
     0
300
1:40
140
1.0
141
40.0
290
     0
  0
SCALE
  5
52
102
{ACAD_REACTORS
330
47
102
}
330
47
100
AcDbScale
 70
     0
300
1:50
140
1.0
141
50.0
290
     0
  0
SCALE
  5
53
102
{ACAD_REACTORS
330
47
102
}
330
47
100
AcDbScale
 70
     0
300
1:100
140
1.0
141
100.0
290
     0
  0
SCALE
  5
54
102
{ACAD_REACTORS
330
47
102
}
330
47
100
AcDbScale
 70
     0
300
2:1
140
2.0
141
1.0
290
     0
  0
SCALE
  5
55
102
{ACAD_REACTORS
330
47
102
}
330
47
100
AcDbScale
 70
     0
300
4:1
140
4.0
141
1.0
290
     0
  0
SCALE
  5
56
102
{ACAD_REACTORS
330
47
102
}
330
47
100
AcDbScale
 70
     0
300
8:1
140
8.0
141
1.0
290
     0
  0
SCALE
  5
57
102
{ACAD_REACTORS
330
47
102
}
330
47
100
AcDbScale
 70
     0
300
10:1
140
10.0
141
1.0
290
     0
  0
SCALE
  5
58
102
{ACAD_REACTORS
330
47
102
}
330
47
100
AcDbScale
 70
     0
300
100:1
140
100.0
141
1.0
290
     0
  0
SCALE
  5
59
102
{ACAD_REACTORS
330
47
102
}
330
47
100
AcDbScale
 70
     0
300
1/128" = 1'-0"
140
0.0078125
141
12.0
290
     0
  0
SCALE
  5
5A
102
{ACAD_REACTORS
330
47
102
}
330
47
100
AcDbScale
 70
     0
300
1/64" = 1'-0"
140
0.015625
141
12.0
290
     0
  0
SCALE
  5
5B
102
{ACAD_REACTORS
330
47
102
}
330
47
100
AcDbScale
 70
     0
300
1/32" = 1'-0"
140
0.03125
141
12.0
290
     0
  0
SCALE
  5
5C
102
{ACAD_REACTORS
330
47
102
}
330
47
100
AcDbScale
 70
     0
300
1/16" = 1'-0"
140
0.0625
141
12.0
290
     0
  0
SCALE
  5
5D
102
{ACAD_REACTORS
330
47
102
}
330
47
100
AcDbScale
 70
     0
300
3/32" = 1'-0"
140
0.09375
141
12.0
290
     0
  0
SCALE
  5
5E
102
{ACAD_REACTORS
330
47
102
}
330
47
100
AcDbScale
 70
     0
300
1/8" = 1'-0"
140
0.125
141
12.0
290
     0
  0
SCALE
  5
5F
102
{ACAD_REACTORS
330
47
102
}
330
47
100
AcDbScale
 70
     0
300
3/16" = 1'-0"
140
0.1875
141
12.0
290
     0
  0
SCALE
  5
60
102
{ACAD_REACTORS
330
47
102
}
330
47
100
AcDbScale
 70
     0
300
1/4" = 1'-0"
140
0.25
141
12.0
290
     0
  0
SCALE
  5
61
102
{ACAD_REACTORS
330
47
102
}
330
47
100
AcDbScale
 70
     0
300
3/8" = 1'-0"
140
0.375
141
12.0
290
     0
  0
SCALE
  5
62
102
{ACAD_REACTORS
330
47
102
}
330
47
100
AcDbScale
 70
     0
300
1/2" = 1'-0"
140
0.5
141
12.0
290
     0
  0
SCALE
  5
63
102
{ACAD_REACTORS
330
47
102
}
330
47
100
AcDbScale
 70
     0
300
3/4" = 1'-0"
140
0.75
141
12.0
290
     0
  0
SCALE
  5
64
102
{ACAD_REACTORS
330
47
102
}
330
47
100
AcDbScale
 70
     0
300
1" = 1'-0"
140
1.0
141
12.0
290
     0
  0
SCALE
  5
65
102
{ACAD_REACTORS
330
47
102
}
330
47
100
AcDbScale
 70
     0
300
1-1/2" = 1'-0"
140
1.5
141
12.0
290
     0
  0
SCALE
  5
66
102
{ACAD_REACTORS
330
47
102
}
330
47
100
AcDbScale
 70
     0
300
3" = 1'-0"
140
3.0
141
12.0
290
     0
  0
SCALE
  5
67
102
{ACAD_REACTORS
330
47
102
}
330
47
100
AcDbScale
 70
     0
300
6" = 1'-0"
140
6.0
141
12.0
290
     0
  0
SCALE
  5
68
102
{ACAD_REACTORS
330
47
102
}
330
47
100
AcDbScale
 70
     0
300
1'-0" = 1'-0"
140
12.0
141
12.0
290
     0
  0
ENDSEC
  0
EOF
